Search tabs:
Browse artists: 0-9 | A | B | C | D | E | F | G | H | I | J | K | L | M | N | O | P | Q | R | S | T | U | V | W | X | Y | Z
/ / / bass tab

36 Crazyfists
An Agreement Called Forever
Bitterness The Star
Tabbed By Adam Williams (machinevayne11)

Tuning C G C F

Intro: x1

|----------------------------------------------------------------|
|----------------------------------------------------------------|
|-----------------4-4-4-4\2-2-2-------------------4-4-4-4/7-7-7--|
|-3-3-3-3-3-3-3-------------------3-3-3--3-3-3-3-----------------|


|----------------------------------------------------------------|
|----------------------------------------------------------------|
|-------------------4-4-4-4\2-2-2-----------------4-4-4-4/7-7-7--|
|---3-3-3-3-3-3-3------------------3-3--3-3--3-3-----------------|


Verse: x8

|----------------------------------------|
|----------------------------------------|
|----------------------------------------|
|---3-3-3-3-3-3-3-3-10-10-10-10-7-7-7-7--|

Intro: x1


Chorus: x4

|-----------------------------------------------------------------|
|-----------------------------------------------------------------|
|-8-8-8-8-8-8-8-8-6-6-6-6-6-6-6-6-3-3-3-3-3-3-3-3-----------------|
|-------------------------------------------------3-3-3-3-3-3-3-3-|



Post-chorus: x4

|-----------------------|
|-----------------------|
|-----------------------|
|---6--3--3-3-5-5-5-5---|

Fill: x1

|-------------------|
|-------------------|
|-------------------|
|-10-10-10-7-7-7-7--|


Verse: x4

Intro: x1

Chorus: x4

Interlude (cool bass solo)

X1

|------------------------------------------------------
|-------------------------------------------.-.-.------
|--9~------9-8~------8/9~-------8/9--9-8--8-6-6-6-6----
|------------------------------------------------------


-----------------------------------------------
-------------.-.-.-.-------------.-.-.-.-------
-8/9--9-8--8-6-6-6-6---8/9--9-8--6-6-6-6-------
-----------------------------------------------


----------------------------------------------------------
-------------.-.-.-.---------------.--.-------------------
-8/9--9-8--8-8-8-8-8---8/9--9-8--8-10-10-10/12\10-11h10---
----------------------------------------------------------


---------------------------------------------------------
-------------.-.-------------------------.-.-------------
-8/9--9-8--8-6-6-6/8\6-7h6---8/9--9-8--8-8-8-8/10\8-9h8--
---------------------------------------------------------


-------------.--.-----------------|
-------------.--.-----------------|
-8/9--9-8--8-10-10-10/12\10-11h10-|
----------------------------------|

Fill: x1
|---------------------------------------------------|
|---------------------------------------------------|
|---------------------------------------------------|
|-7-7-7-7-7-7-7-10-10-10-10-10-10-10-10-------------|

Chorus: x4

Post-chorus: x4

Chorus: x4


albums
tabs

 

1