Search tabs:
Browse artists: 0-9 | A | B | C | D | E | F | G | H | I | J | K | L | M | N | O | P | Q | R | S | T | U | V | W | X | Y | Z
/ / / bass tab

36 Crazyfists
Ceramic
Bitterness The Star
Tabbed By Adam Williams (machinevayne11)

Tuning C G C F

If question marks appear, its not cos the notes are dodgy, its a problem with mxtabs, dunno y its happenin cos i didnt put them in, but they might not occur, soz if they do
Pre Verse: x4

|-------------------------|-|-|-------------------------------------|
|-------------------------|-|-|-------------------------------------|
|---------------7/8-7\0h3-|-|-|-----------------8/----10-10-10------|
|-0-0-0-0-8-8-8-----------|-|-|-0-0-0-0-8-8-8-8---------------------|


Verse part 1: x4

|---------------------------------------------------------------------------|
|---------------------------------------------------------------------------|
|----------7/8-7\0h3----------7/8-7\0h3---------7/8-7\0h3--8/101010121012^--|
|00-00-0-0-----------88-88-8-8---------55-55-5-5----------------------------|


Verse part 2: x1

|-------------------------------------------------------------------|
|-------------------------------------------------------------------|
|--------7-5-7^-------8-7-8^--------10-8-10^----------12-10-12^-----|
|0-0-0-0-------8-8-8-8------5-5-5-5-----------0-0-0-0---------------|



Chorus: x4

|-------------------------------------------|
|-------------------------------------------|
|-------------------------------------------|
|-3-3-3--0-0-0--8-8-8--7--7-8-7-------------|

Fill: x1

|----------------------------------|
|----------------------------------|
|----------------------------------|
|-00-0-00-0-00-0-00----------------|


Pre-verse: x4

Verse part 1: x4

Verse part 2: x1

Chorus: x4

2nd Chorus: x4


|-----------------------------------------------------------------|
|-----------------------------------------------------------------|
|-5-5-5-5-5-5-5-5-5-5-5-5-5-5-5-5---------------------------------|
|---------------------------------8-8-8-8-8-8?8-8-5-5-5-5-5-5-5-5-|
Fill: x1


Interlude: (just rest)

Chorus: x4

2nd chorus: x8

Last Fill: x4

|--------------------------------------------|
|--------------------------------------------|
|--------------------------------------------|
|-00-0-00-0-00-0h3-030-----------------------|



Thank you, please rate


albums
tabs

 

1