Search tabs:
Browse artists: 0-9 | A | B | C | D | E | F | G | H | I | J | K | L | M | N | O | P | Q | R | S | T | U | V | W | X | Y | Z
/ / / bass tab

36 Crazyfists
Chalk White
Bitterness The Star
Tabbed By Adam Williams (machinevayne11)

Tuning C G C F

If question marks appear, its not cos the notes are dodgy, its a problem with mxtabs, dunno y its happenin cos i didnt put them in, but they might not occur, soz if they do

Intro: x1


|--------------------------------------------------
|--------------------------------------------------
|---------------------------11-11-11-11-11-11-11---
|-11-11-11-11-11-11-11-11--------------------------


------------------------------------
------------------------------------
-------------------4-4-4-4/5/4------
-9-9-9-9-9-9-9-9--------------------



-------------------------------------------
-------------------------------------------
-------------------------------------------
-11-11-11-11-11-11-11-11-11-11-11-11-11-11-



---------------------------------------------------|
---------------------------------------------------|
--/16-16-16-16-16-16-16-16-11-11-11-11-11-11-11-11-|
---------------------------------------------------|

x1
|------------------------------------------------------------------|
|------------------------------------------------------------------|
|------------------------------------------------------------------|
|-4-4-4-4---0--------4--x-x--0-------4-4-4-4---0-------4--x-x-0--x-|






Verse: x1

|-----------------------------------------------------------
|-----------------------------------------------------------
|--9-9-9--9-9?-9-9-9\4-4---11-11-11--11-11--11-11-11/4-4----
|-----------------------------------------------------------



---------------------------------------------------------------------------|
---------------------------------------------------------------------------|
--9-9-9?-9-9--9-9-9/4-4----11-11-11-11-11?11-11-11/16-16-16-16-16-16-16-16-|
---------------------------------------------------------------------------|




Pre-Chorus: x4

|-----------------------------------------|
|-----------------------------------------|
|-----------------4/5/4-------------------|
|---000--0-0-0-0--------------------------|


Verse: x1

Pre-chorus: x4



Chorus:

|---------------------------------------------------------------------------|
|---------------------------------------------------------------------------|
|---------------------------------------------------------------------------|
|---4-4-4-4-4-4-4-4-6-6-6-6-6-6-6-6-7-7-7-7-7-7-7-7-11-11-11-11-11-11-11-11-|


Pre-chorus: x2

Chorus:

Pre-chorus: x1

Pre-chorus variation: x1

|-----------------------|
|-----------------------|
|-----------------------|
|---000--0-0-0-0?-0-0-0-|




Bridge:

X1         x4
----------|-------------------------------------------|
----------|-------------------------------------------|
----5-----|-----------------------------------5-------|
-5-----5--|--5-5-4-0---5-5-4-0---5-5-4-0---5-----5----|


Verse: x1

Pre-chorus: x4

Chorus: x1

Pre-chorus: x2

Chorus: 1

Pre-chorus: x1

Pre-chorus variation: x1


Bridge:

X1         x4 (same as before)



2nd Bridge: X4


|------------------------------------------|
|------------------------------------------|
|----------------------------------5-------|
|--5---4-0---5---4-0---5---4-0---5----5----|


Bridge: x4


albums
tabs

 

1