Search tabs:
Browse artists: 0-9 | A | B | C | D | E | F | G | H | I | J | K | L | M | N | O | P | Q | R | S | T | U | V | W | X | Y | Z
/ / / bass tab

Band: 36 Crazyfists
Song: Circle The Drain
Album: Bitterness The Star
Bassist: Mick Whitney
Tabbed By: BurnTheBassistMX (bronzemetaler@hotmail.com)
Tuning: C G C F

Riff 1 (0:00)
F |--------------------------------------------------------|
C |--------------------------------------------------------|
G |--------------------------------------------------------|
C |--0-0-0-8-7-8-0-00-00-8-7-8-0-0-0-8-7-8-0-00-00-8-10-8--|

Fill (0:17)
F |-----------|
C |-----------|
G |-----------|
C |--0-0-00---|

Riff 2 (0:35)
F |----------------------------------------------------|
C |----------------------------------------------------|
G |----------------------------------------------------|
C |--7-7-7-8-0-8-7-7-7-8-0-8-7-7-7-8-0-8-7-7-7-8-10-8--|

Riff 3 (0:43)
F |----------------------------------------------------|
C |----------------------------------------------------|
G |----------------------------------------------------|
C |--0-0-0-8-7-8-0-0-0-8-7-8-0-0-0-8-7-8-0-0-0-8-10-8--|

Riff 4 (0:53)
F |---------------------------------------------|
C |---------------------------------------------|
G |-----------------------------0-0-0/11-11-11--|
C |--2-2-2/10-10-10-0-0-0/8-8-8-----------------|

F |---------------|
C |---------------|
G |----1-0---3-1--|
C |--0-----2------|

Fill (1:08)
Riff 1 (1:10)
Riff 2 (1:25)
Riff 3 (1:33)
Riff 4 (1:43)

Riff 5 (2:00)
F |------------------------|
C |------------------------|
G |------------1/3333-333--|
C |--1p0~-1p0~-------------|
(2:11)
F |---------------------------|
C |---------------------------|
G |--------------3-1-0-1h3-1--|
C |--1p000-1p000--------------|

Fill (2:22)
Riff 2 (2:24)
Riff 3 (2:32)
Riff 4 (2:42)
Riff 5 (3:00)
Fill (3:34)


albums
tabs

 

1