Search tabs:
Browse artists: 0-9 | A | B | C | D | E | F | G | H | I | J | K | L | M | N | O | P | Q | R | S | T | U | V | W | X | Y | Z
/ / / bass tab

36 Crazyfists
Left Hand Charity
Bitterness The Star
Tabbed By adam Williams

Tuning C G C F

I am tabbibg this song in two diiferent octaves, so u can choose whether u want to play it in bass or if u want more of a guitar feel (considering the song only has guitar in it anyway)

If question marks appear, its not cos the notes are dodgy, its a problem with mxtabs, dunno y its happenin cos i didnt put them in, but they might not occur, soz if they do

Verse/ Main Riff:
(low Octave)
|--------------------------------|
|----6---8---9-------2---4---1---|
|---6-6---6---6-----2-2---2---1--|
|--6---------------2-------------|

(high Octave)
|-----------------------------------------|
|----18---22---21--------14----16---13----|
|---18-18---18---18-----14-14----14--13---|
|--18------------------14-----------------|


Chorus:
(low octave)
|------------------------------------|
|------------------------------------|
|------------------------------------|
|--6-6-6-6-6-6-6-6--2-2-2-2-2-2-2-2--|

(high Octave)
|----------------------------------------------------|
|----------------------------------------------------|
|----------------------------------------------------|
|--18-18-18-18-18-18-18-18--14-14-14-14-14-14-14-14--|

Thankyou, please rate this tab


albums
tabs

 

1