Search tabs:
Browse artists: 0-9 | A | B | C | D | E | F | G | H | I | J | K | L | M | N | O | P | Q | R | S | T | U | V | W | X | Y | Z
/ / / bass tab

Band: 36 Crazyfists
Song: One More Word
Album: Bitterness The Star
Bassist: Mick Whitney
Tabbed By: BurnTheBassistMX (bronzemetaler@hotmail.com)
Tuning: C G C F

Chorus (0:00)
F |---------------------------|
C |---------------------------|
G |--555-333-111-333-1-3-1-0--|
C |---------------------------|
(0:05)
F |---------------------------|
C |---------------------------|
G |------333-111-333-1-3-1-0--|
C |--000----------------------|

Verse (0:15)    (0:25)
F |------------|-----|
C |------------|-----|
G |--5~-3~-1~--|--1--|
C |------------|-----|

Verse 2 (0:26)
F |-------------------------|
C |-------------------------|
G |--555-333-111-333-11-33--|
C |-------------------------|

Pre Chorus (0:36)
F |-------------------------|
C |-------------------------|
G |-------------------------|
C |--3-5-0--3-2-5-0--3-5-0--|

Verse (0:46)
Verse 2 (0:56)
Pre Chorus (1:07)
Chorus (1:17)

Bass Solo (1:38)
F |-----------------------|
C |-----------------------|
G |--5-3-1-3-1-3-1-5-3-1--|
C |-----------------------|

Heavy Riff (1:44)
F |-----------------------|----------|-----------|--7-4-5--|
C |-----------------------|----------|-----------|---------|
G |--5-3-1-3-1-3-1-5-3-1--|----------|-----------|---------|
C |-----------------------|--00-000--|--0-0-000--|---------|

Verse (2:06)
Verse 2 (2:17)
Pre Chorus (2:27)
Chorus (2:37)
Heavy Riff (2:58)


albums
tabs

 

1