Search tabs:
Browse artists: 0-9 | A | B | C | D | E | F | G | H | I | J | K | L | M | N | O | P | Q | R | S | T | U | V | W | X | Y | Z
/ / / bass tab

Tabbed by: Nick W (SporKsBaSSisT)
Band: 36 Crazyfists
Song: Slit Wrist Theory
Contact: jodokast_jd@hotmail.com

Tuning: CGCF


Intro/Verse




F---------------------------------------------
C----------8---------------7------------------
G------------------6-------------------3------
C--5------------------------------------------


F--------------------------------------5------
C----------8---------------7--------------7---
G------------------6--------------------------
C--5------------------------------------------



*before entering the Pre-Chorus, he lets the
first note ring


F-------------------------------------------
C-------------------------------------------
G-------------------------------------------
C--5----------------------------------------



Pre-Chorus


F------------------------------------------- 3x
C-------------------------------------------
G-------------------------------------------
C--3--5--5--3--5--5--3--5-------------------
Get the f*** out, stay the f*** out, it makes me sick!
(Slit wrist theory stains us all!)



F-------------------------------------------
C-------------------------------------------
G-------------------------------------------
C-0-----1-----3-----4------3--4-------------
I'm alright ...


Chorus




F-------------------------------------------
C-------------------------------------------   hit notes multiple times
G-------------------------------------------
C-------5-----------------8-----------------
   Lace me up        Lace me up



F--------------------------------------------
C--------------------------------------------
G-----------6----------------3---------------
C--------------------------------------------
I'm still looking for these angels in the snow



F---------------------------------------------------
C---------------------------------------------------
G---6-----------------------------------------------
C-------------------8---------------8---5-----------
(Looking for these angels)






Bridge


F----------------------------------------------------------------
C----------------------------------------------------------------
G----------------------------------------------------------------
C-5-5-5-3-6-6-6-3-5-5-5-3-6-6-6-3-5-5-5-3-6-6-6-3-5-5-5-5-1-1-1-1
Braided conversa . . . TION!


back to prechorus, but with a heavier section



D-------------------------------------------
A-------------------------------------------
F-------------------------------------------
C-------------------------------------------
G-------------------------------------------
C--0-----1------3-----4-------3--4----------

its a real cool song, i saw em live, and they put on a real good show.


albums
tabs

 

1