Search tabs:
Browse artists: 0-9 | A | B | C | D | E | F | G | H | I | J | K | L | M | N | O | P | Q | R | S | T | U | V | W | X | Y | Z
/ / / bass tab

Band: 36 Crazyfists
  Song: Turns To Ashes
 Album: Bitterness The Star
Tuning: C G C F
Tabber: John Dixon (ShibbyBass4)
  Note: I'm pretty sure this whole song is slapped


Intro  (bass comes in at 0:05)
F|-----------------|
C|-----------------|
G|-----------------|
C|-0-0-3-1-0-1-0-1-|x8

F|------------|
C|------------|
G|------------|
C|-3--1--0--1-|x2


Verse 1
F|-----------------|
C|-----------------|
G|-----------------|
C|-0-0-3-1-0-1-0-1-|x7


Pre-Chorus (x2)
F|----------------|------------|
C|----------------|------------|
G|----------------|------------|
C|-0--0---3-1-0-1-|-0--0---7h8-|

F|----------------|------------|
C|----------------|------------|
G|----------------|------------|
C|-0--0---3-1-0-1-|-0--0---3h1-|


Chours 1
F|--------------------------------------|
C|--------------------------------------|
G|--------------------------------------|
C|-0-------7-------3-------8-------0--0-|x2


After Chorus
F|-----------------|
C|-----------------|
G|-----------------|
C|-0-0-3-1-0-1-0-1-|x4


Verse 2
F|-----------------|
C|-----------------|
G|-----------------|
C|-0-0-3-1-0-1-0-1-|x15


Play Pre-Chorus


Chorus 2
F|--------------------------------------|
C|--------------------------------------|
G|--------------------------------------|
C|-0-------7-------3-------8-------0--0-|x4


Bridge (Guitar solo/fill)
F|-----------------|
C|-----------------|
G|-----------------|
C|-0-0-3-1-0-1-0-1-|x7


Play Chorus 2 again


Outro
F|-----------------|
C|-----------------|
G|-----------------|
C|-0-0-3-1-0-1-0-1-|
Play that until the end of the song
End the song on and open C

E-mail me if you have questions or comments
please rate

-John


albums
tabs

 

1