Search tabs:
Browse artists: 0-9 | A | B | C | D | E | F | G | H | I | J | K | L | M | N | O | P | Q | R | S | T | U | V | W | X | Y | Z
/ ABBA / Abba (1975) / S.O.S. bass tab

Title: SOS
Artist: ABBA

Instrument: 4 String Bass

Tabbed by: RighteousDuncan

Tuning: Standard (E A D G)

Fun little song on the bass, listen for timing:

Verse 1

G|-------------------------------------------------------------------||
D|-------------------------------------------------------------------||
A|-------------------------------------------------------------------||
E|-10/5--5/-10---10/5-5/10--10--1/7/3/10-10/5-/-10-------------------||

Chorus
G|-------------------------------------------------------------------||
D|-------------------------------------------------------------------||
A|----3-----1-------------------------------3----1-------------------||
E|-1-----3-----1--1-1---1--1-1--1--1-1----1---3------1--1-1---1--1-1-||

G|-----------------------------------------------------||
D|------------------------1-1-3-3-3-3-3-3-3-3----------||
A|---------1-1-1-1---4-4-------------------------------||
E|-1--1-1----------------------------------------------||

G|----------------------------------------------||
D|----------------1-1-3-3-3-3-3-3-3-3-----------||
A|--1-1-1-1--4-4--------------------------------||
E|----------------------------------------------||

Verse 2

G|-------------------------------------------------------------------||
D|-------------------------------------------------------------------||
A|-------------------------------------------------------------------||
E|-10/5--5/-10---10/5-5/10--10--1/7/3/10-10/5-/-10-------------------||

Chorus
G|-------------------------------------------------------------------||
D|-------------------------------------------------------------------||
A|----3-----1-------------------------------3----1-------------------||
E|-1-----3-----1--1-1---1--1-1--1--1-1----1---3------1--1-1---1--1-1-||

G|-----------------------------------------------------||
D|------------------------1-1-3-3-3-3-3-3-3-3----------||
A|---------1-1-1-1---4-4-------------------------------||
E|-1--1-1----------------------------------------------||

G|----------------------------------------------||
D|----------------1-1-3-3-3-3-3-3-3-3-----------||
A|--1-1-1-1--4-4--------------------------------||
E|----------------------------------------------||

Bridge
G|---------------------------------------------------||
D|---------------------------------------------------||
A|-1-1-1-1-1-1-1-1-1-1-1-1-1-1-1-1-1-1-1-1-----------||
E|---------------------------------------------------||

Chorus
G|-------------------------------------------------------------------||
D|-------------------------------------------------------------------||
A|----3-----1-------------------------------3----1-------------------||
E|-1-----3-----1--1-1---1--1-1--1--1-1----1---3------1--1-1---1--1-1-||

G|-----------------------------------------------------||
D|------------------------1-1-3-3-3-3-3-3-3-3----------||
A|---------1-1-1-1---4-4-------------------------------||
E|-1--1-1----------------------------------------------||

G|----------------------------------------------||
D|----------------1-1-3-3-3-3-3-3-3-3-----------||
A|--1-1-1-1--4-4--------------------------------||
E|----------------------------------------------||

That's it

RighteousDuncan


ABBA albums
1981 The Visitors
1980 Super Trooper
1979 Voulez Vous
1977 The Album
1976 Arrival
1975 Abba
1974 Waterloo
1973 Ring Ring
ABBA Gold. Greatest Hits
Abba tabs
01Mamma Mia tabbass tab
03Tropical Loveland tabbass tab
04S.O.S. tabbass tab
06Bang-A-Boomerang tabbass tab
07I Do, I Do, I Do, I Do, I Do tabbass tab
10I've Been Waiting For You tabbass tab
11So Long tabbass tab
12Waterloo tabbass tab
13Hasta Manana tabbass tab
14Honey Honey tabbass tab
15Ring Ring tabbass tab
16Nina, Pretty Ballerina tabbass tab

 

1