Search tabs:
Browse artists: 0-9 | A | B | C | D | E | F | G | H | I | J | K | L | M | N | O | P | Q | R | S | T | U | V | W | X | Y | Z
/ ABBA / The Album (1977) / Take A Chance On Me bass tab

Title: Take A Chance On Me
Artist: ABBA

Instrument: 4 String Bass

Tabbed by: RighteousDuncan

Tuning: Standard (E A D G)

Nice little song, I tried to have the words as close as
I could to the note change. Listen for timing:

 Chorus: bass comes in on "if your all alone"

G|---------------------------------------------||
D|---------------------------------------------||
A|-------2-2-2-2-2-2-2-2-2-2-2-2-2-2-2---------||
E|---------------------------------------------||
  all alone...
G|----------------------------------------------||
D|----------------------------------------------||
A|----------------------------------------------||
E|--2-2-2-2-2-2-2-2-2-2-2-2-2-2-2-2-2-2-2-2-----||
 on me...

G|----------------------------------------------------------||
D|----------------------------------------------------------||
A|-----2-2-2-2----------------------------------------------||
E|---------------2-2-2-2-2-2-2-2-2-2-2-2-2-2-2-2-2-2-2------||
  you let...

Verse 1
G|----------------------------------------------------------||
D|----------------------------------------------------------||
A|-4-4-4-4-4-4-4-4---2-2-2-2-2-2-2-2--4-4-4-4-4-4-4-4-------||
E|----------------------------------------------------------||
  we can...      As long....         Listen....

G|-------------------------------------------------------------------||
D|-------------------------------------------------------------------||
A|-2-2-2-2-2-2-2-2--0-0-0-0------------------------------------------||
E|----------------------------0-0-0-0----5-5-5-5-5-5-5-5--0-0-0-0----||
  Get....           so....   when...    magic....        afraid....

G|------------------------------------------||
D|------------------------------------------||
A|------------------------------------------||
E|-2-2-2-2-2-2-2-2-2-2-2-2-2-2-2-2-2--------||
  you....

Chorus:

G|-------------------------------------------------------------------||
D|-------------------------------------------------------------------||
A|--2-2-2-2-2-2-2-2-2-2-----------------------------------2-2-2-2-2-2||
E|----------------------2-2-2-2-2-2-2-2-2-2-2-2-2-2-2-2--------------||
  mind....              me....                           feelin'....
G|---------------------------------------------||
D|---------------------------------------------||
A|-2-2-2-2-2-2-2-2-2-2-2-2-2-2-2-2-2-2---------||
E|---------------------------------------------||
  all alone...
G|----------------------------------------------||
D|----------------------------------------------||
A|----------------------------------------------||
E|--2-2-2-2-2-2-2-2-2-2-2-2-2-2-2-2-2-2-2-2-----||
 on me...

G|----------------------------------------------------------||
D|----------------------------------------------------------||
A|-----2-2-2-2----------------------------------------------||
E|---------------2-2-2-2-2-2-2-2-2-2-2-2-2-2-2-2-2-2-2------||
  you let...

Verse 2

G|----------------------------------------------------------||
D|----------------------------------------------------------||
A|--4-4-4-4-4-4-4-4----2-2-2-2-2-2-2-2---4-4-4-4-4-4-4-4----||
E|----------------------------------------------------------||
   take....          ohhh....           you're....

G|----------------------------------------------------------||
D|----------------------------------------------------------||
A|-2-2-2-2-2-2-2-2-2----------------------------------------||
E|--------------------5-5-5-5--0-0-0-0---5-5-5-5-5-5-5-5----||
  I....              my....   to...     magic....

G|------------------------------------------------||
D|------------------------------------------------||
A|------------------------------------------------||
E|-0-0-0-0--2-2-2-2-2-2-2-2-2-2-2-2-2-2-2-2-------||
  but....  oh....

Chorus:

G|-------------------------------------------------------------------||
D|-------------------------------------------------------------------||
A|--2-2-2-2-2-2-2-2-2-2-----------------------------------2-2-2-2-2-2||
E|----------------------2-2-2-2-2-2-2-2-2-2-2-2-2-2-2-2--------------||
  mind....              me....                           feelin'....
G|---------------------------------------------||
D|---------------------------------------------||
A|-2-2-2-2-2-2-2-2-2-2-2-2-2-2-2-2-2-2---------||
E|---------------------------------------------||
  all alone...
G|----------------------------------------------||
D|----------------------------------------------||
A|----------------------------------------------||
E|--2-2-2-2-2-2-2-2-2-2-2-2-2-2-2-2-2-2-2-2-----||
 on me...

G|----------------------------------------------------------||
D|----------------------------------------------------------||
A|-----2-2-2-2----------------------------------------------||
E|---------------2-2-2-2-2-2-2-2-2-2-2-2-2-2-2-2-2-2-2------||
  you let...


Thanks
RighteousDuncan


ABBA albums
1981 The Visitors
1980 Super Trooper
1979 Voulez Vous
1977 The Album
1976 Arrival
1975 Abba
1974 Waterloo
1973 Ring Ring
ABBA Gold. Greatest Hits
The Album tabs
01Eagle tabbass tab
02Take A Chance On Me tabbass tab
03One Man, One Woman tabbass tab
04The Name Of The Game tabbass tab
05Move On tabbass tab
06Hole In Your Soul tabbass tab
07Thank You For The Music tabbass tab
09I'm A Marionette tabbass tab

 

1