Search tabs:
Browse artists: 0-9 | A | B | C | D | E | F | G | H | I | J | K | L | M | N | O | P | Q | R | S | T | U | V | W | X | Y | Z
/ ABBA / Voulez Vous (1979) / Chiquitita bass tab

Title: Chiquitita
Artist: ABBA

Instrument: 4 String Bass

Tabbed by: RighteousDuncan

Tuning: Standard (E A D G)

Listen for timing:

Bass comes in on, How I hate to See you like this, line

G|-------------------------------------------------------------------||
D|-------------------2-----0----2-----2-------------2--------2--2----||
A|--0----0--4-2-4-----------------------2----0--0-----0--------------||
E|----3-----------------------------------0-------------0----------0-||
                     I-I-I-I can see..
G|-------------------------------------------------------------------||
D|--------------------------------2-----0-2--------------------------||
A|-0-0-0-0-0------4---4---4---4--------------------------------------||
E|----------------------------------------------0--5--5--5-----------||
                a feather...      I-I-I-I hope

Chorus

G|-------------------------------------------------------------------||
D|--0------0-----0-----0-----0---------------------------------------||
A|-----------------------------------0-------------------------------||
E|-----5------5-----5-----5-----5------0--5-0--5-0-5-0/12-7--12-7----||
  Now...

G|-------------------------------------------------------------------||
D|-------------------------------0----0----0----0--------------------||
A|---------------------------------0----0----0----0------------------||
E|-12-7--12-7--5-0-5-0-5-0-5-0-----------------------5-0-5-0-5-0-5-0-||

Verse 2 is bassically like verse 1 only the bass starts at the
 beggining so there are  added notes, which are basically the same.
 then:

Chorus

G|-------------------------------------------------------------------||
D|--0------0-----0-----0-----0---------------------------------------||
A|-----------------------------------0-------------------------------||
E|-----5------5-----5-----5-----5------0--5-0--5-0-5-0/12-7--12-7----||
  Now...

G|-------------------------------------------------------------------||
D|-------------------------------0----0----0----0--------------------||
A|---------------------------------0----0----0----0------------------||
E|-12-7--12-7--5-0-5-0-5-0-5-0-----------------------5-0-5-0-5-0-5-0-||

Outro:

G|------------------||
D|------------------||
A|--0----0----------||
E|----5----5--------|| repeat and fade

That's it

RighteousDuncan


ABBA albums
1981 The Visitors
1980 Super Trooper
1979 Voulez Vous
1977 The Album
1976 Arrival
1975 Abba
1974 Waterloo
1973 Ring Ring
ABBA Gold. Greatest Hits
Voulez Vous tabs
01As Good As New tabbass tab
02Voulez-Vous tabbass tab
03I Have A Dream tabbass tab
05The King Has Lost His Crown tabbass tab
06Does Your Mother Know tabbass tab
07If It Wasn't For The Nights tabbass tab
08Chiquitita tabbass tab
10Kisses Of Fire tabbass tab

 

1