Search tabs:
Browse artists: 0-9 | A | B | C | D | E | F | G | H | I | J | K | L | M | N | O | P | Q | R | S | T | U | V | W | X | Y | Z
/ ABBA / Waterloo (1974) / Waterloo bass tab

Title: Waterloo
Artist: ABBA
Album:

Instrument: 4 String Bass

Tabbed by: RighteousDuncan

Tuning: Standard (E A D G)

Fun song, listen for timing:

Intro:

G|---------------------------------------||
D|-0-0-0-0-0-0-0-0-0-0-0-0-0-0-0-0-------||
A|---------------------------------------||
E|---------------------------------------||

Verse:

G|-------------------------------------------------------------------||
D|-------------------------------------------------------------------||
A|--5-5-5-5-5-5-5-5-4-4-4-4-2-2-2-2-2/10-10-10-10--5-5-5-5-5-5-5-5---||
E|-------------------------------------------------------------------||

G|-------------------------------------------------------------------||
D|-------------------------------------------------------------------||
A|-4-4-4-4-2-2-2-2-0-0-0-0-2-2-2-2-2-2-2-2-2-2-2-2-0-0-0-0-----------||
E|-------------------------------------------------------------------||

Chorus:

G|-------------------------------------------------------------------||
D|-2-2-0-2-0----------------------------------2-2-0-2-0--2-3-4-5-----||
A|-----------------------2-2-0-2-0-----------------------------------||
E|-------------2-3-4-5--------------2-3-4-5--------------------------||

G|-----------------||
D|-----------------||
A|-2-2-0-2-0-2-----||
E|-----------------||

G|-------------------------------------------------------------------||
D|-2-2-0-2-0----------------------------------2-2-0-2-0--2-3-4-5-----||
A|-----------------------2-2-0-2-0-----------------------------------||
E|-------------2-3-4-5--------------2-3-4-5--------------------------||

G|-----------------||
D|-----------------||
A|-2-2-0-2-0-2-----||
E|-----------------||

G|----------------------------------------------||
D|-----------2-2-0-2-0--2-3-4-5-----------------||
A|-------------------------------2--------------||
E|-2-3-4-5--------------------------------------||

Verse:

G|-------------------------------------------------------------------||
D|-------------------------------------------------------------------||
A|--5-5-5-5-5-5-5-5-4-4-4-4-2-2-2-2-2/10-10-10-10--5-5-5-5-5-5-5-5---||
E|-------------------------------------------------------------------||

G|-------------------------------------------------------------------||
D|-------------------------------------------------------------------||
A|-4-4-4-4-2-2-2-2-0-0-0-0-2-2-2-2-2-2-2-2-2-2-2-2-0-0-0-0-----------||
E|-------------------------------------------------------------------||

Chorus:

G|-------------------------------------------------------------------||
D|-2-2-0-2-0----------------------------------2-2-0-2-0--2-3-4-5-----||
A|-----------------------2-2-0-2-0-----------------------------------||
E|-------------2-3-4-5--------------2-3-4-5--------------------------||

G|-----------------||
D|-----------------||
A|-2-2-0-2-0-2-----||
E|-----------------||

G|-------------------------------------------------------------------||
D|-2-2-0-2-0----------------------------------2-2-0-2-0--2-3-4-5-----||
A|-----------------------2-2-0-2-0-----------------------------------||
E|-------------2-3-4-5--------------2-3-4-5--------------------------||

G|-----------------||
D|-----------------||
A|-2-2-0-2-0-2-----||
E|-----------------||

G|----------------------------------------------||
D|-----------2-2-0-2-0--2-3-4-5-----------------||
A|-------------------------------2--------------||
E|-2-3-4-5--------------------------------------||

Bridge type thing :

G|------------------------------------||
D|-------------------2-2-2-2----------||
A|--2-2-2-2-2-2-2-2-------------------||
E|------------------------------------||

Chorus:

G|-------------------------------------------------------------------||
D|-2-2-0-2-0----------------------------------2-2-0-2-0--2-3-4-5-----||
A|-----------------------2-2-0-2-0-----------------------------------||
E|-------------2-3-4-5--------------2-3-4-5--------------------------||

G|-----------------||
D|-----------------||
A|-2-2-0-2-0-2-----||
E|-----------------||

Repeat and fade

RighteousDuncan


ABBA albums
1981 The Visitors
1980 Super Trooper
1979 Voulez Vous
1977 The Album
1976 Arrival
1975 Abba
1974 Waterloo
1973 Ring Ring
ABBA Gold. Greatest Hits
Waterloo tabs
01Waterloo tabbass tab
03King Kong Song tabbass tab
04Hasta Manana tabbass tab
05My Mama Said tabbass tab
07Honey Honey tabbass tab
08What About Livingstone tabbass tab
10Gonna Sing You My Love Song tabbass tab

 

1