Search tabs:
Browse artists: 0-9 | A | B | C | D | E | F | G | H | I | J | K | L | M | N | O | P | Q | R | S | T | U | V | W | X | Y | Z
/ Acid Bath / Paegan Terrorism Tactics (1997) / Bleed Me An Ocean bass tab

Band:  Acid Bath
Album: Paegan Terrorism Tactics
Song:  Bleed Me An Ocean

Copyright (c)  Rotten Records 1996
Version 1.0 - (DATE)

Transcribed By: Herbmeister420
Email:          Herbmeister420@bandhunt.com

/  - slide up to
\  - slide down to
h  - hammer on
b  - Bend

Tuning CGCF
Riff 1
|-----------------------------------|
|-----------------------------------|
|----------3-3----------------------|
|-7-7-7\-5-----5\-3--3-3-/5-6-5-5h6-|

Fill 1
|-------------------------|
|-------------------------|
|-------------------------|
|-3-3-3-3-3-3-3-3-2-2-2-2-|

Riff 2
|------------------------------------------------------------|
|------------------------------------------------------------|
|------------------------------------------------------------|
|-7-7-7-7--7-7\-5/-7-7-7-7--7-7\-3-3-3-3-3-3-3-2-2-2-2-2-2-2-|

Riff 3
|-----------------------------|
|-----------------------------|
|-----3-3-3-------------------|
|-7-5-------0-3/5555-0-5/6666-|

Riff 4	
|-----------------------------|
|-----------------------------|
|-----3-3-3-------------------|
|-7-5-------2/-3-3\-2-6-6-6-6-|

Fill 2
|-----------|
|-----------|
|-----------|
|-7-7-6-5-7-|

Riff 5
|---------------------------------------------------------|
|---------------------------------------------------------|
|---------------------------------------------------------|
|-2-2-2/-6-6-6\-2-2-2/-5-5-5\-2b/-6-6-6-6\-2-2-2-2--5-4-3-|

Riff 6
|----------------------------------------------------------------|
|----------------------------------------------------------------|
|-----------8-8-8------------------------------------------------|
|-8-7-7-7-7-------8-7-7-7-7\-6-6-6-\-3-3-3-3-3-3-3-2-2-2-2-2-2-2-|

END

Really great song!


Acid Bath albums
1997 Paegan Terrorism Tactics
1994 When The Kite String The Pope
Paegan Terrorism Tactics tabs
02Bleed Me An Ocean tabbass tab
04Diab Soule tabbass tab
05Locust Spawning tabbass tab
07New Death Sensation tabbass tab
08Venus Blue tabbass tab
0913 Fingers tabbass tab
10New Corpse tabbass tab
11Dead Girl tabbass tab

 

1