Search tabs:
Browse artists: 0-9 | A | B | C | D | E | F | G | H | I | J | K | L | M | N | O | P | Q | R | S | T | U | V | W | X | Y | Z
/ Angra / Reaching Horizons (1992) / Carry On bass tab

Angra - Carry  On
Submitted By: Violão Rulez (Guilherme Nassar Viola)
EMail: manotruta@hotmail.com


Intro.

------------------------------------------------------------------------------
------------------0-0-------------------------------------------0-0-----------
--0---0---0---0--------0---0---0---0---333-222--0---0---0---0-----------------
------------------------------------------------------------------------------

						Intro 2.
------------------------------------|-----------------------------------------
-0000000000000000-22222222222222222-|----------------0-0----------------------
------------------------------------|-0---0---0---0-------0---0---0---0--333--
------------------------------------|-----------------------------------------


------------------------------------------------------------------------------
----------------------0-0--00000000000000000-2222222222222222-----------------
-222--0---0---0---0-----------------------------------------------------------
------------------------------------------------------------------------------


-2222222222222222-000000000000000---------------------------------------|-----
----------------------------------0000000000000000-2222222222222222-----|-----
------------------------------------------------------------------------|-----
---------------------------------------------------------------------0--|-----


--1-9-7-5-4-2-1-2-4-2-0-----------|-------------------------------------|-----
------------------------3-2-0-----|-------------------------------------|-----
-3----------------------------3-2-|-0-0-0-0-0-0-0-0-0-0-0-0-0-0-0-0-0-0-|-----
----------------------------------|-------------------------------------|-----

Little Bass Solo.

--------------------------------------|-------------------------------------|-
--15----------------15----------------|--18-15----------15-18-15----------15|-
-----17-14----14-17----17-14----14-17-|--------17-14-17----------17-14-17---|-
-----------16----------------16-------|-------------------------------------|-


--16----------------16----------------|-19-16----------16-19-16----------16-|-
-----18-15----15-18----18-15----15-18-|-------18-15-18----------18-15-18----|-
-----------17----------------17-------|-------------------------------------|-
--------------------------------------|-------------------------------------|-

Vocals.

------------------------------------------------------------------------------
--------------------0000000000000000------------------------------------------
---0000000000000000------------------33333333----------0000000000000000-------
----------------------------------------------3-3-3-3-------------------------


---------------------------------|---
-333333333333-000000000----------|---
---------------------------------|---
------------------------33333333-|---

BRIDGE

---------------7-5-2p0h2------------------------------------------------------
---0-0-0-0-0-0----------------------------------------333333333333------------
--------------------------0---------------------3-------------------0---------
----------------------------3-3--1111111111111----3-3-----------------3-3-111-

	   1º time	2º/3º times.
--------|---------|---------|---
--------|---------|---------|---
--------|---------|---------|---
-111111-|-00000---|--33333--|---

Repete Intro ,vocals and bridge

Chorus

------------------------------------------------------------------------------
-----------------------------------------------------222222222222222----------
---3333333333333333-----------------0000000000000000--------------------------
--------------------333333333333333-------------------------------------------


------------------------------------------------------------------|-----------
-3333333333333333-----------------5555555555555555555555555555555-|-----------
------------------3333333333333333--------------------------------|-----------
------------------------------------------------------------------|-----------


-5555555555555555-44444444-00000000-2222222244442222-00000000-----------------
--------------------------------------------------------------22222222--------
------------------------------------------------------------------------------
------------------------------------------------------------------------------


-3333333333333333--5-|---
---------------------|---
---------------------|---
---------------------|---

Solo.

-----------------------|------------------------------------------------------
-----------------------|------------------------------------------------------
---0---0---0---0---0-0-|--55555555555-444444444444-555555555555-33333333333---
-----------------------|------------------------------------------------------


-----------------------------------------------------|------------------------
-333333333333----------------------------------------|------------------------
--------------333333333333-111111111111-000000000000-|-5555555555555----------
-----------------------------------------------------|------------------------


------------------------------------------------------------------------------
---------------------------------------------333333333333---------------------
-4444444444444-55555555555555-33333333333333--------------3333333333333-------
------------------------------------------------------------------------------


---------------------------|--------------------------------------------------
--------------222222222222-|--------------------------------------------------
-111111111111--------------|------------------3333----------------------------
---------------------------|-1111111111111111------3333-5555-3333-------------


------------------------------------------------------------------------------
------------------------------------------------------------------------------
--------------55555555555555-------------------------------------------3333---
-111111111111----------------3333333333333-5555-3333-11111111111111111--------


-----------------------------------------------------------|---
-----------------------------------------------------------|---
-----------------------------555555555555-7-7-7-7-7-7-7-7--|---
-3333-5555-3333-111111111111---------------0-0-0-0-0-0-0-0-|---


--------------------------------------------------||---
----------------------2-4---4-5----7-5------------||---
-------------5-3----------------------------7-5---||---
---000000000-----0000-----00----00-----0000-----7-||---


------------------------------------------------------------------------------
--------------------2-4----45----7-5--------------------------------2-4----4--
-----------5-3---------------------------7-5---------------5-3----------------
--00000000-----0000-----00----00-----0000----7---000000000-----0000-----00----


------0-2-4-2--7-6------------------||-----------------------------------14-|-
-5--2-------------------------------||--------------------------------------|-
-------------------4444444444444444-||-5555555555555555-7777777777777777-12-|-
------------------------------------||--------------------------------------|-


Angra albums
2005 Temple of Shadows
2002 Hunters and Prey
2001 Rebirth
1998 Fireworks
1996 Holy Land
1993 Angels Cry
1992 Reaching Horizons
Reaching Horizons tabs
01Evil Warning tabbass tab
02Time tabbass tab
03Reaching Horizons tabbass tab
04Carry On tabbass tab
05Queen of the night tabbass tab
06Angels Cry tabbass tab

 

1