Search tabs:
Browse artists: 0-9 | A | B | C | D | E | F | G | H | I | J | K | L | M | N | O | P | Q | R | S | T | U | V | W | X | Y | Z
/ Arch Enemy / Burning Bridges (1999) / Pilgrim bass tab

just use a 5 string bass, but if none is available then just tune down till b...even though it wont sound good...itll match the song....so it depends

D||------||----------------------------------------------|
A||------||*--7--7-7-7-7-7--7-7-7-7----------------------|
E||------||*------------------------6--6-6-6-6-6-6-6-6-6-|
B||------||----------------------------------------------|



----------------------------------------------|
----------------------------------------------|
----------------------------------------------|
--6--6-6-6-6-6--6-6-6-6-5--5-5-5-5-4--4-4-4-4-|



----------------------------------------------|
--7--7-7-7-7-7--7-7-7-7-----------------------|
------------------------6--6-6-6-6-6--6-6-6-6-|
----------------------------------------------|



-----------------------------------||-------------------------|
----------------------------------*||--------------5--5--5----|
----------------------------------*||--7--7--7--7-------------|
--6--6-6-6-6-6--6-6-6-6-5----4-----||-------------------------|



------------------------------|-------------------------|---------------------|
------------3-3-3-3--5-5-5-5--|--------------5--5--5----|---------------------|
--2----2----------------------|--7--7--7--7-------------|--3------5--7--------|
------------------------------|-------------------------|---------------------|



-------------------------|------------------------------|
--------------5--5--5----|------------3-3-3-3--5-5-5-5--|
--7--7--7--7-------------|--2----2----------------------|
-------------------------|------------------------------|



-------------------------|---------------------|
--------------5--5--5----|---------------------|
--7--7--7--7-------------|--3------5--7--------|
-------------------------|---------------------|



|---------------------------------------------|
|*--------------------------------------------|
|*-----------------------------------------8--|
|---0--0-0-0-0-0-0-0-0-0-0-0-0-0-0-0-0-0-0----|



--------------------------------------------|
--------------------------------------------|
--7-----------------------------------------|
-----0-0-0-0-0-0-0-0-0-0-0-0-0-0-0-0-0-0-1--|



--------------------------------------------|
--------------------------------------------|
-----------------------------------------8--|
--0--0-0-0-0-0-0-0-0-0-0-0-0-0-0-0-0-0-0----|


                                          3x
------------------------------------------||------x----x----x-x-------x-x-|
-----------------------------------------*||*-----x----x----x-x-------x-x-|
--7--------------------------------------*||*--7--7-7--7-7--7-7-3--3--3-3-|
-----0-0-0-0-0-0-0-0-0-0-0-0-0~-0-0-0-7~--||------------------------------|



-----x----x----x-x-------x-x--||-----x----x----x-x-------x-x-|
-----x----x----x-x-------x-x-*||-----x----x----x-x-------x-x-|
--5--5-5--5-5--5-5-7--7--7-7-*||--7--7-7--7-7--7-7-3--3--3-3-|
------------------------------||-----------------------------|



-----x----x----x-x-------x-x-|-----x----x----x-x-------x-x-|
-----x----x----x-x-------x-x-|-----x----x----x-x-------x-x-|
--5--5-5--5-5--5-5-7--7--7-7-|--7--7-7--7-7--7-7-3--3--3-3-|
-----------------------------|-----------------------------|



-----x----x----x-x-------x-x-|-----x----x----x-x-------x-x-|
-----x----x----x-x-------x-x-|-----x----x----x-x-------x-x-|
--5--5-5--5-5--5-5-7--7--7-7-|--7--7-7--7-7--7-7-3--3--3-3-|
-----------------------------|-----------------------------|



-----x----x----x-x-------x-x-|-----x----x----x-x-------x-x-|
-----x----x----x-x-------x-x-|-----x----x----x-x-------x-x-|
--5--5-5--5-5--5-5-7--7--7-7-|--7--7-7--7-7--7-7-3--3--3-3-|
-----------------------------|-----------------------------|



-----x----x----x-x-------x-x-|--------------------------------------------|
-----x----x----x-x-------x-x-|--------------------------------------------|
--5--5-5--5-5--5-5-7--7--7-7-|-----------------------------------------8--|
-----------------------------|--0--0-0-0-0-0-0-0-0-0-0-0-0-0-0-0-0-0-0----|



--------------------------------------------|
--------------------------------------------|
--7-----------------------------------------|
-----0-0-0-0-0-0-0-0-0-0-0-0-0-0-0-0-0-0-1--|



--------------------------------------------|
--------------------------------------------|
-----------------------------------------8--|
--0--0-0-0-0-0-0-0-0-0-0-0-0-0-0-0-0-0-0----|



-----------------------------------------|
-----------------------------------------|
--7--------------------------------------|
-----0-0-0-0-0-0-0-0-0-0-0-0-0~-0-0-0-7~-|



--------------------------------------------|
--------------------------------------------|
-----------------------------------------8--|
--0--0-0-0-0-0-0-0-0-0-0-0-0-0-0-0-0-0-0----|



--------------------------------------------|
--------------------------------------------|
--7-----------------------------------------|
-----0-0-0-0-0-0-0-0-0-0-0-0-0-0-0-0-0-0-1--|



--------------------------------------------|
--------------------------------------------|
-----------------------------------------8--|
--0--0-0-0-0-0-0-0-0-0-0-0-0-0-0-0-0-0-0----|



-----------------------------------------|
-----------------------------------------|
--7--------------------------------------|
-----0-0-0-0-0-0-0-0-0-0-0-0-0~-0-0-0-7~-|



--------------------------------------------|
--------------------------------------------|
-----------------------------------------8--|
--0--0-0-0-0-0-0-0-0-0-0-0-0-0-0-0-0-0-0----|



--------------------------------------------|
--------------------------------------------|
--7-----------------------------------------|
-----0-0-0-0-0-0-0-0-0-0-0-0-0-0-0-0-0-0-1--|



--------------------------------------------|
--------------------------------------------|
-----------------------------------------8--|
--0--0-0-0-0-0-0-0-0-0-0-0-0-0-0-0-0-0-0----|



-----------------------------------------|
-----------------------------------------|
--7--------------------------------------|
-----0-0-0-0-0-0-0-0-0-0-0-0-0~-0-0-0-7~-|



--------------------------------------------|
--------------------------------------------|
-----------------------------------------8--|
--0--0-0-0-0-0-0-0-0-0-0-0-0-0-0-0-0-0-0----|



--------------------------------------------|
--------------------------------------------|
--7-----------------------------------------|
-----0-0-0-0-0-0-0-0-0-0-0-0-0-0-0-0-0-0-1--|



--------------------------------------------|
--------------------------------------------|
-----------------------------------------8--|
--0--0-0-0-0-0-0-0-0-0-0-0-0-0-0-0-0-0-0----|



-----------------------------------------||------x----x----x-x-------x-x-|
-----------------------------------------||*-----x----x----x-x-------x-x-|
--7--------------------------------------||*--7--7-7--7-7--7-7-3--3--3-3-|
-----0-0-0-0-0-0-0-0-0-0-0-0-0~-0-0-0-7~-||------------------------------|



-----x----x----x-x-------x-x--||-----x----x----x-x-------x-x-|
-----x----x----x-x-------x-x-*||-----x----x----x-x-------x-x-|
--5--5-5--5-5--5-5-7--7--7-7-*||--7--7-7--7-7--7-7-3--3--3-3-|
------------------------------||-----------------------------|



-----x----x----x-x-------x-x-|-----x----x----x-x-------x-x-|
-----x----x----x-x-------x-x-|-----x----x----x-x-------x-x-|
--5--5-5--5-5--5-5-7--7--7-7-|--7--7-7--7-7--7-7-3--3--3-3-|
-----------------------------|-----------------------------|



-----x----x----x-x-------x-x-|-----x----x----x-x-------x-x-|
-----x----x----x-x-------x-x-|-----x----x----x-x-------x-x-|
--5--5-5--5-5--5-5-7--7--7-7-|--7--7-7--7-7--7-7-3--3--3-3-|
-----------------------------|-----------------------------|



-----x----x----x-x-------x-x-|-----x----x----x-x-------x-x-|
-----x----x----x-x-------x-x-|-----x----x----x-x-------x-x-|
--5--5-5--5-5--5-5-7--7--7-7-|--7--7-7--7-7--7-7-3--3--3-3-|
-----------------------------|-----------------------------|



-----x----x----x-x-------x-x-|---------------------|--------------------|
-----x----x----x-x-------x-x-|---------------------|--------------------|
--5--5-5--5-5--5-5-7--7--7-7-|--10--------------8--|--6--------------6--|
-----------------------------|---------------------|--------------------|



--------------------|---------------------||-----------------------------------|
--------------------|---------------------||*--5-5-----5-5-----8-8-7-7-5-5-----|
--7--------------7--|--8--------12--------||*------5-5-----5-5-------------5-5-|
--------------------|---------------------||-----------------------------------|



----------8-8-----12-12-10-10-8-8-----|
------8-8-----8-8-----------------8-8-|
--6-6---------------------------------|
--------------------------------------|



------------9-9-------12-12-10-10-9-9-------|
------10-10-----10-10-----------------10-10-|
--7-7---------------------------------------|
--------------------------------------------|



----------------10-10---------------11-11--||
------10-10-8-8-----------12-12-8-8-------*||
--8-8-----------------9-9-----------------*||
-------------------------------------------||



-----------------------------------|----------8-8-----12-12-10-10-8-8-----|
*--5-5-----5-5-----8-8-7-7-5-5-----|------8-8-----8-8-----------------8-8-|
*------5-5-----5-5-------------5-5-|--6-6---------------------------------|
-----------------------------------|--------------------------------------|



------------9-9-------12-12-10-10-9-9-------|
------10-10-----10-10-----------------10-10-|
--7-7---------------------------------------|
--------------------------------------------|



----------------10-10---------------11-11/-||------x----x----x-x-------x-x-|
------10-10-8-8-----------12-12-8-8-------*||*-----x----x----x-x-------x-x-|
--8-8-----------------9-9-----------------*||*--7--7-7--7-7--7-7-3--3--3-3-|
-------------------------------------------||------------------------------|



-----x----x----x-x-------x-x--||------x----x----x-x-------x-x-|
-----x----x----x-x-------x-x-*||*-----x----x----x-x-------x-x-|
--5--5-5--5-5--5-5-7--7--7-7-*||*--7--7-7--7-7--7-7-3--3--3-3-|
------------------------------||------------------------------|



-----x----x----x-x-------x-x-|-----x----x----x-x-------x-x-|
-----x----x----x-x-------x-x-|-----x----x----x-x-------x-x-|
--5--5-5--5-5--5-5-7--7--7-7-|--7--7-7--7-7--7-7-3--3--3-3-|
-----------------------------|-----------------------------|



-----x----x----x-x-------x-x--||--------------------|--------------------|
-----x----x----x-x-------x-x-*||--------------------|--------------------|
--5--5-5--5-5--5-5-7--7--7-7-*||--7------3----------|--5------7----------|
------------------------------||--------------------|--------------------|



--------------------|--------------------|----------||
--------------------|--------------------|----------||
--7------3----------|--5--------7--------|----------||
--------------------|--------------------|----------||


Arch Enemy albums
2003 Anthems of Rebellion
2001 Wages of Sin
1999 Burning Bridges
1998 Stigmata
1996 Black Earth
Burning Bridges tabs
01The Immortal tabbass tab
02Dead Inside tabbass tab
03Pilgrim tabbass tab
04Silverwing tabbass tab
05Demonic Science tabbass tab
06Seed of Hate tabbass tab
07Angelclaw tabbass tab
08Burning Bridges '99 tabbass tab

 

1