Search tabs:
Browse artists: 0-9 | A | B | C | D | E | F | G | H | I | J | K | L | M | N | O | P | Q | R | S | T | U | V | W | X | Y | Z
/ Arch Enemy / Burning Bridges (1999) / The Immortal bass tab

once again i suggest a 5 string bass

D||---------------------------|------------------------------|
A||*--------------------------|------------------------------|
E||*--------------------------|------------------3-3-1-1-----|
B||---0--0--0--0--0--0--0--0--|--0--0--0--0--5-5---------1-1-|



--------------------------|-------------------------------||-------------------|
--------------------------|------------------------------*||-------------------|
--------------------------|------------------3-3-1-1-----*||--7~---------------|
--0--0--0--0--0--0--0--0--|--0--0--0--0--5-5---------1-1--||--0~---------------|



|--------------------|-------------------|-------------------|
|*-------------------|-------------------|-------------------|
|*--7----------------|--7----------------|--7----------------|
|---0----------------|--0----------------|--0----------------|



--------------------||-------------------|---------------------|
-------------------*||-------------------|---------------------|
--7----------------*||--7----------------|---------------------|
--0-----------------||--0----------------|--2------2--1--------|



|-----------------------------------|-------------------------------|
|*----------------------------------|-------------------------------|
|*----------------------------------|-------------------------------|
|---0-0-0-0-0-0-0-0-0-0-0-0-0-0-0-0-|--0--0-0-0-0-6--7--0-0-0-0-0-0-|



---------------------------------|--------------------------------||
---------------------------------|-------------------------------*||
---------------------------------|-------------------------------*||
--0--0-0-0-0-0-0-0-0-0-0-0-0-0-3-|--2--0-0-0-0-2--1--0-0-0-0-0-0--||



-----------------------------------|-------------------------------|
*----------------------------------|-------------------------------|
*----------------------------------|-------------------------------|
---0-0-0-0-0-0-0-0-0-0-0-0-0-0-0-0-|--0--0-0-0-0-6--7--0-0-0-0-0-0-|



---------------------------------|--------------------------------||
---------------------------------|-------------------------------*||
---------------------------------|-------------------------------*||
--0--0-0-0-0-0-0-0-0-0-0-0-0-0-3-|--2--0-0-0-0-2--1--0-0-0-0-0-0--||



--------------------------|--------------------------|
--------------------------|--------------------------|
--------------------------|--------------------------|
--0--0--0--0--0--0--0--0--|--0--0--0--0--0--0--0--0--|



--------------------------|--------------------------|
--------------------------|--------------------------|
--------------------------|--------------------------|
--1--1--1--1--1--1--1--1--|--1--1--1--1--1--1--1--1--|



--------------------------|--------------------------|
--------------------------|--------------------------|
--------------------------|--------------------------|
--2--2--2--2--2--2--2--2--|--2--2--2--2--2--2--2--2--|



--------------------------|--------------------------|
--------------------------|--------------------------|
--------------------------|--------------------------|
--1--1--1--1--1--1--1--1--|--1--1--1--1--1--1--1--1--|



--------------------------|--------------------------|
--------------------------|--------------------------|
--7--7--7--7--7--7--7--7--|--7--7--7--7--7--7--7--7--|
--0--0--0--0--0--0--0--0--|--0--0--0--0--0--0--0--0--|



--------------------------|--------------------------|
--------------------------|--------------------------|
--6--6--6--6--6--6--6--6--|--6--6--6--6--6--6--6--6--|
--------------------------|--------------------------|



--------------------------|--------------------------|
--------------------------|--------------------------|
--5--5--5--5--5--5--5--5--|--5--5--5--5--5--5--5--5--|
--------------------------|--------------------------|



--------------------------|--------------------------|
--------------------------|--------------------------|
--4--4--4--4--4--4--4--4--|--4--4--4--4--4--4--4--4--|
--------------------------|--------------------------|



|---------------------------|------------------------------|
|*--------------------------|------------------------------|
|*--------------------------|------------------3-3-1-1-----|
|---0--0--0--0--0--0--0--0--|--0--0--0--0--5-5---------1-1-|



--------------------------|-------------------------------||
--------------------------|------------------------------*||
--------------------------|------------------3-3-1-1-----*||
--0--0--0--0--0--0--0--0--|--0--0--0--0--5-5---------1-1--||



-----------------------------------|-------------------------------|
*----------------------------------|-------------------------------|
*----------------------------------|-------------------------------|
---0-0-0-0-0-0-0-0-0-0-0-0-0-0-0-0-|--0--0-0-0-0-6--7--0-0-0-0-0-0-|



---------------------------------|--------------------------------||
---------------------------------|-------------------------------*||
---------------------------------|-------------------------------*||
--0--0-0-0-0-0-0-0-0-0-0-0-0-0-3-|--2--0-0-0-0-2--1--0-0-0-0-0-0--||



-----------------------------------|-------------------------------|
*----------------------------------|-------------------------------|
*----------------------------------|-------------------------------|
---0-0-0-0-0-0-0-0-0-0-0-0-0-0-0-0-|--0--0-0-0-0-6--7--0-0-0-0-0-0-|



---------------------------------|--------------------------------||
---------------------------------|-------------------------------*||
---------------------------------|-------------------------------*||
--0--0-0-0-0-0-0-0-0-0-0-0-0-0-3-|--2--0-0-0-0-2--1--0-0-0-0-0-0--||



--------------------------|--------------------------|
--------------------------|--------------------------|
--------------------------|--------------------------|
--0--0--0--0--0--0--0--0--|--0--0--0--0--0--0--0--0--|



--------------------------|--------------------------|
--------------------------|--------------------------|
--------------------------|--------------------------|
--1--1--1--1--1--1--1--1--|--1--1--1--1--1--1--1--1--|



--------------------------|--------------------------|
--------------------------|--------------------------|
--------------------------|--------------------------|
--2--2--2--2--2--2--2--2--|--2--2--2--2--2--2--2--2--|



--------------------------|--------------------------|
--------------------------|--------------------------|
--------------------------|--------------------------|
--1--1--1--1--1--1--1--1--|--1--1--1--1--1--1--1--1--|



--------------------------|--------------------------|
--------------------------|--------------------------|
--7--7--7--7--7--7--7--7--|--7--7--7--7--7--7--7--7--|
--0--0--0--0--0--0--0--0--|--0--0--0--0--0--0--0--0--|



--------------------------|--------------------------|
--------------------------|--------------------------|
--6--6--6--6--6--6--6--6--|--6--6--6--6--6--6--6--6--|
--------------------------|--------------------------|



--------------------------|--------------------------|
--------------------------|--------------------------|
--5--5--5--5--5--5--5--5--|--5--5--5--5--5--5--5--5--|
--------------------------|--------------------------|



--------------------------|--------------------------|
--------------------------|--------------------------|
--4--4--4--4--4--4--4--4--|--4--4--4--4--4--4--4--4--|
--------------------------|--------------------------|



|--------------------------|------------------------|------------------------|
|*-------------------------|------------------------|------------------------|
|*--3----0--0--0--0--0--3--|------0--0--0--0--0--3--|------0--0--0--0--0--0--|
|--------------------------|------------------------|------------------------|



-----------------------||--------------------------|--------------------------|
----------------------*||--------------------------|--------------------------|
--3/-5----8----5------*||--------------------------|--------------------------|
-----------------------||--1--1--1--1--1--1--1--1--|--1--1--1--1--1--1--1--1--|



--------------------------|--------------------------|
--------------------------|--------------------------|
--3--3--3--3--3--3--3--3--|--2--2--2--2--2--2--2--2--|
--------------------------|--------------------------|



|--------------------------|------------------------|------------------------|
|*-------------------------|------------------------|------------------------|
|*--3----0--0--0--0--0--3--|------0--0--0--0--0--3--|------0--0--0--0--0--0--|
|--------------------------|------------------------|------------------------|



-----------------------||--------------------------|--------------------------|
----------------------*||--------------------------|--------------------------|
--5--3----8----5------*||--------------------------|--------------------------|
-----------------------||--1--1--1--1--1--1--1--1--|--1--1--1--1--1--1--1--1--|



--------------------------|--------------------------||----------------------|
--------------------------|--------------------------||*---------------------|
--3--3--3--3--3--3--3--3--|--2--2--2--2--2--2--2--2--||*--7------5--------3--|
--------------------------|--------------------------||----------------------|



--------------------------|---------------------|---------------------------||
--------------------------|---------------------|--------------------------*||
--3--3--3--3--3--3--3--3--|--3------5--------7--|--7--7--7--7--7--7--7--7--*||
--------------------------|---------------------|---------------------------||



----------------------|--------------------------|---------------------|
*---------------------|--------------------------|---------------------|
*--8------6--------4--|--4--4--4--4--4--4--4--4--|--4------6--------8--|
----------------------|--------------------------|---------------------|



---------------------------||----------------------|--------------------------|
--------------------------*||*---------------------|--------------------------|
--8--8--8--8--8--8--8--8--*||*--9------7--------5--|--5--5--5--5--5--5--5--5--|
---------------------------||----------------------|--------------------------|



---------------------|---------------------------||--------------------------|
---------------------|--------------------------*||--------------------------|
--5------7--------9--|--9--9--9--9--9--9--9--9--*||--7--7--7--7--7--7--7--7--|
---------------------|---------------------------||--0--0--0--0--0--0--0--0--|



--------------------------|--------------------------|
--------------------------|--------------------------|
--7--7--7--7--7--7--7--7--|--8--8--8--8--8--8--8--8--|
--------------------------|--------------------------|



--------------------------|--------------------------|
--------------------------|--------------------------|
--8--8--8--8--8--8--8--8--|--9--9--9--9--9--9--9--9--|
--------------------------|--------------------------|



--------------------------|--------------------------|
--------------------------|--------------------------|
--9--9--9--9--9--9--9--9--|--------------------------|
--------------------------|--1--1--1--1--1--1--1--1--|



--------------------------|--------------------------|
--------------------------|--------------------------|
--------------------------|--7--7--7--7--7--7--7--7--|
--1--1--1--1--1--1--1--1--|--0--0--0--0--0--0--0--0--|



--------------------------|--------------------------|
--------------------------|--------------------------|
--7--7--7--7--7--7--7--7--|--6--6--6--6--6--6--6--6--|
--0--0--0--0--0--0--0--0--|--------------------------|



--------------------------|--------------------------|
--------------------------|--------------------------|
--6--6--6--6--6--6--6--6--|--5--5--5--5--5--5--5--5--|
--------------------------|--------------------------|



--------------------------|--------------------------|
--------------------------|--------------------------|
--5--5--5--5--5--5--5--5--|--4--4--4--4--4--4--4--4--|
--------------------------|--------------------------|



--------------------------|--------------------------|
--------------------------|--------------------------|
--4--4--4--4--4--4--4--4--|--------------------------|
--------------------------|--0--0--0--0--0--0--0--0--|



------------------------------|-------------------------|
------------------------------|-------------------------|
------------------3-3-1-1-----|--7----------------------|
--0--0--0--0--5-5---------1-1-|--0----0--0--0--0--0--0--|



--------------------------|-------------------||
--------------------------|-------------------||
-----------------3--1-----|-------------------||
--0--0--0--0--5--------1--|--0----------------||


Arch Enemy albums
2003 Anthems of Rebellion
2001 Wages of Sin
1999 Burning Bridges
1998 Stigmata
1996 Black Earth
Burning Bridges tabs
01The Immortal tabbass tab
02Dead Inside tabbass tab
03Pilgrim tabbass tab
04Silverwing tabbass tab
05Demonic Science tabbass tab
06Seed of Hate tabbass tab
07Angelclaw tabbass tab
08Burning Bridges '99 tabbass tab

 

1