Search tabs:
Browse artists: 0-9 | A | B | C | D | E | F | G | H | I | J | K | L | M | N | O | P | Q | R | S | T | U | V | W | X | Y | Z
/ At The Gates / Slaughter Of The Soul (1995) / World Of Lies bass tab

World of Lies
At the Gates
Tuning: B-E-A-D-G

this is pretty much the whole song, have fun

G|------------------------------------------------------------------------------|
D|------------------------------------------------------------------------------|
A|------------------------------------------------------------------------------|
E|--------------------------------------------5h7-77---------------------5h7-77-|
B|--7--6--3--2--0---------5h7--00--9h10--000-----------5h7--00--9h10--000-------|
                      ..      .           ..      .           ..      .
G|--------------------------------------------------------------|
D|--------------------------------------------------------------|
A|--------------------------------------------------------------|
E|----------------------5h7-77----------------------------------|
B|--5h7--00--9h10--000----------------------000-6-0000-6-00-6---|

-Six6xiS


At The Gates albums
1995 Slaughter Of The Soul
1994 Terminal Spirit Disease
1993 With Fear I Kiss The Burning Darkness
1992 The Red in the Sky is Ours
1991 Gardens of Greif
Slaughter Of The Soul tabs
01Blinded By Fear tabbass tab
02Slaughter Of The Soul tabbass tab
03Cold tabbass tab
04Under A Serpent Sun tabbass tab
05Into The Dead Sky tabbass tab
06Suicide Nation tabbass tab
07World Of Lies tabbass tab
08Unto Others tabbass tab
09Nausea tabbass tab
10Need tabbass tab
11The Flames Of The End tabbass tab

 

1