Search tabs:
Browse artists: 0-9 | A | B | C | D | E | F | G | H | I | J | K | L | M | N | O | P | Q | R | S | T | U | V | W | X | Y | Z
/ At The Gates / With Fear I Kiss The Burning Darkness (1993) / Raped by the Light of Christ bass tab

RAPED BY THE LIGHT OF CHRIST (Bassline)
                           As recorded by At The Gates
           (From the 1993 Album WITH FEAR I KISS THE BURNING DARKNESS)

Words by Thomas Lindberg

Music by At The Gates
Arranged by At The Gates
Transcribed by Christian Gjerstad

Gtr I (B E A D) - 'Untitled'

 Intro
  Q=100
 4/4
  Gtr I
  Wx8
|--------|
|--------|
|--------|
|--------|


  W          W          W          W
|----------|----------|----------|------|
|----------|----------|----------|------|
|-7--------|----------|-7--------|-5----|
|----------|-8--------|----------|------|


  W          W          W          E E E E E E E E
|----------|----------|----------|-----9-------9---|
|----------|----------|----------|---7---7---7---7-|
|-7--------|----------|-7--------|-5-------5-------|
|----------|-8--------|----------|-----------------|


 Theme A
  E E E E E E E E   E E E E E E Q    E E E E E E E E   E E E E E E Q
|-----------------|----------------|-----------------|----------------|
|-----------------|----------------|-----------------|----------------|
|-7-7-7-7-7-7-7-7-|-5-5-5-5-5-5-5--|-7-7-7-7-7-7-7-7-|-5-5-5-5-5-5-5--|
|-----------------|----------------|-----------------|----------------|


  E E E E E E E E   E E E E E E E E   E E E E E E E E   E E E E E E E E
|-----------------|-----------------|-----------------|-----------------|
|-----------------|-----------------|-----------------|-----------------|
|-----------------|-----------------|-2-2-2-2-2-2-2-2-|-3-3-3-3-3-3-3-3-|
|-0-0-0-0-0-0-0-0-|-1-1-1-1-1-1-1-1-|-----------------|-----------------|


 Theme B - Triplet Theme
 12/8
  E E E E E E E E E E E E   E E E E E E E E E E E E
|-------------------------|-------------------------|
|-------3-3-3-------------|-------3-3-3-------------|
|-------------------3-3-3-|-------------------3-3-3-|
|-0-0-0-------0-0-0-------|-0-0-0-------0-0-0-------|


  E E E E E E E E E E E E   E E E E E E E E E E E E
|-------------------------|-------------------------|
|-------3-3-3-------------|-------3-3-3-------3-3-3-|
|-------------------------|-------------------------|
|-0-0-0-------0-0-0-0-0-0-|-0-0-0-------0-0-0-------|


 Verse
 4/4
  E E E E E E E E   E E E E E E Q    E E E E E E E E   E E E E E E Q
|-----------------|----------------|-----------------|----------------|
|-----------------|----------------|-----------------|----------------|
|-7-7-7-7-7-7-7-7-|-5-5-5-5-5-5-5--|-7-7-7-7-7-7-7-7-|-5-5-5-5-5-5-5--|
|-----------------|----------------|-----------------|----------------|


 Return to theme A
  E E E E E E E E   E E E E E E E E   E E E E E E E E   E E E E E E E E
|-----------------|-----------------|-----------------|-----------------|
|-----------------|-----------------|-----------------|-----------------|
|-----------------|-----------------|-2-2-2-2-2-2-2-2-|-3-3-3-3-3-3-3-3-|
|-0-0-0-0-0-0-0-0-|-1-1-1-1-1-1-1-1-|-----------------|-----------------|


   Verse II
    Q.=127
   12/8
    E E E E E E E E E E E E   E E E E E E E E E E E E   4x
||--------------------------|---------------------------||
||o-------------------------|--------------------------o||
||o-------------------------|--------------------------o||
||--2-2-2-3-3-3-2-2-2-3-3-3-|-2-2-2-3-3-3-2-2-2-3-3-3---||


   Verse III
    S S S S S S S S S S S S S S S S S S S S S S S S
||--------------------------------------------------|
||o-------------------------------------------------|
||o-------------------------------------------------|
||--7-7-7-7-7-7-7-7-7-7-7-7-8-8-8-8-8-8-5-5-5-5-5-5-|


  S S S S S S S S S S S S S S S S S S  S  S  S  S  S  S  5x
|--------------------------------------------------------||
|-------------------------------------------------------o||
|-------------------------------------------------------o||
|-7-7-7-7-7-7-7-7-7-7-7-7-8-8-8-8-8-8-10-10-10-10-10-10--||


   Verse IV
    E E E E E E E E E E E E   E E E E E E E E E E E E  4x
||--------------------------|--------------------------||
||o-------------------------|-------------------------o||
||o-------------------------|-------------------------o||
||--2-2-2-3-3-3-2-2-2-3-3-3-|-2-2-2-3-3-3-2-2-2-3-3-3--||


 Break
  W.              W        Q.    E
|---------------|------------------|
|---------------|------------------|
|---------------|---------------10-|
|---------------|------------------|


   Verse V
    E E E E E E E E E E E E   E E E E E E E E E E E E  4x
||--------------------------|--------------------------||
||o-------------------------|-------------------------o||
||o-------------------------|-------------------------o||
||--0-0-0-0-0-0-0-0-0-0-0-0-|-0-0-0-0-0-0-0-0-0-0-0-0--||


   Verse VI
    S S S S S S S S S S S S S S S S S S S S S S S S
||--------------------------------------------------|
||o-------------------------------------------------|
||o-------------------------------------------------|
||--7-7-7-7-7-7-7-7-7-7-7-7-8-8-8-8-8-8-5-5-5-5-5-5-|


  S S S S S S S S S S S S S S S S S S  S  S  S  S  S  S  5x
|--------------------------------------------------------||
|-------------------------------------------------------o||
|-------------------------------------------------------o||
|-7-7-7-7-7-7-7-7-7-7-7-7-8-8-8-8-8-8-10-10-10-10-10-10--||


 Outro
  E E E E E E E E E E E E   E E E E E E E E E Q.
|-------------------------|------------------------*|
|-------------------------|------------------------*|
|-------------------------|------------------------*|
|-2-2-2-2-2-2-2-2-2-2-2-2-|-3-3-3-3-3-3-1-0-0------*|


Duration Legend
---------------
W - whole; H - half; Q - quarter; E - 8th; S - 16th; T - 32nd; X - 64th; a - acciaccatura
+ - note tied to previous; . - note dotted; .. - note double dotted
Uncapitalized letters represent notes that are staccato (1/2 duration)
Irregular groupings are notated above the duration line
Duration letters will always appear directly above the note/fret number it represents the
duration for.  Duration letters with no fret number below them represent rests.  Multi-
bar rests are notated in the form Wxn, where n is the number of bars to rest for.  Low
melody durations appear below the staff

Tablature Legend
----------------
 h   - hammer-on
 p   - pull-off
 b   - bend
 pb  - pre-bend
 r   - bend release (if no number after the r, then release immediately)
 /\  - slide into or out of (from/to "nowhere")
 s   - legato slide
 S   - shift slide
  - natural harmonic
[n]  - artificial harmonic
n(n) - tapped harmonic
 ~   - vibrato
 tr  - trill
 T   - tap
 TP  - trem. picking
 PM  - palm muting
\n/  - tremolo bar dip; n = amount to dip
 \n  - tremolo bar down
 n/  - tremolo bar up
/n\  - tremolo bar inverted dip
 =   - hold bend; also acts as connecting device for hammers/pulls
 <>  - volume swell (louder/softer)
 x   - on rhythm slash represents muted slash
 o   - on rhythm slash represents single note slash

Misc Legend
-----------
 |  - bar
||  - double bar
||o - repeat start
o|| - repeat end
*|  - double bar (ending)
 :  - bar (freetime)
 $  - Segno
 &  - Coda
Tempo markers -  = BPM(8/16=s8/s16), where s8 = swing 8ths, s16 = swing 16ths


***************************************************************************************
* Generated using Power Tab Editor by Brad Larsen - http://powertab.guitarnetwork.org *
***************************************************************************************


At The Gates albums
1995 Slaughter Of The Soul
1994 Terminal Spirit Disease
1993 With Fear I Kiss The Burning Darkness
1992 The Red in the Sky is Ours
1991 Gardens of Greif
With Fear I Kiss The Burning Darkness tabs
02Raped by the Light of Christ tabbass tab
05Primal Breath tabbass tab
08The Burning Darkness tabbass tab

 

1