Search tabs:
Browse artists: 0-9 | A | B | C | D | E | F | G | H | I | J | K | L | M | N | O | P | Q | R | S | T | U | V | W | X | Y | Z
/ Ataris / Anywhere But Here (1997) / 1-2-3-4 bass tab

This is the Intro number on the album: Any where but here.
Put your bass in normal tuning -> E A D G
Then play this:

verse 1

            1-2-3-4
g ---------------------------------------| 2end time-|
d ---------------------------------------|-----------|
a ------5-5------5-5------5-5--77777777--|-7/0-------| Slow Slide
e -55555-5--55555-5--55555-5-------------|-----------|

Verse 2

g -----------------------------------------|
d -----------------------------------------|
a -----5-5----------------5-5---777777777--| 2x
e -3333-5-5-55555555--3333-5-5-------------|

Afther this play it one more time
the end note or actually it is the first note of the next song but
it is an a ---6---|
That`s it it`s a real nice intro.
just trie it you`ll find out it`s easy to play
>closedRoad<


Ataris albums
2003 So Long, Astoria
2001 End Is Forever
2000 Let It Burn
1999 Blue Skies, Broken Hearts...Next 12 Exits
1997 Anywhere But Here
Anywhere But Here tabs
011-2-3-4 tabbass tab
02As We Speak tabbass tab
04Hey Kid! tabbass tab
05Take Me Back tabbass tab
06Are We There Yet? tabbass tab
07Angry Nerd Rock tabbass tab
08Let It Go tabbass tab
09Lately tabbass tab
10Alone in Santa Cruz tabbass tab
11Make It Last tabbass tab
12Sleepy tabbass tab
13Four Chord Wonder tabbass tab
14Blind and Unkind tabbass tab
15Clara tabbass tab
16Myself tabbass tab
17Neilhouse tabbass tab
19Boxcar tabbass tab
20Ray tabbass tab

 

1