Search tabs:
Browse artists: 0-9 | A | B | C | D | E | F | G | H | I | J | K | L | M | N | O | P | Q | R | S | T | U | V | W | X | Y | Z
/ Atreyu / The Curse (2004) / An Interlude bass tab

Mxtabs [http://www.mxtabs.net]
Band: Atreyu
Song: An Interlude
Album: The Curse
Tuning: C G C F



Play After Guitar Comes In
                         Intro
F---------------------------------------------------------------------------------------------------------------
C-------------------4------------------------------------4/6-------------------------------------------------
G-------------2h4----------5-------------------2h4---------5----------------7/--------------------------
C----4----------------------------------4---------------------------------------------------------------------



F---------------------------------------------------------------
C----------------4---------------------------------------------     X3
G----------2h4--------------5--------------------------------
C--4----------------------------------0---00-----------------



F---------------------------------------------------------------
C---------------------------------------77--9---6-4---------
G--------------------------------------------------------------
C----4----------7-77---9/0---------------------------------



F-----------------------------------------------------------------------------
C--------------------------------------------------------7--7---9--6---4--   X3
G-----------------222------------------------------------------------------
C---4--6--7--4-------4---44-----------------0--------------------------



F------------------------------------------------------------------------------
C----------------------------------------------------------44---6-7--------
G----------------222--------------------------------------------------------
C--4--6--7--4-------4---44------------------0----------------------------



F---------------------------------------------------
C---------------------------------------------------
G--2~---------------------------------------------
C--------0--00------------------------------------



F--------------------------------------------------------
C------------------------------6--7--------------------
G--2~--------------------------------------------------
C-------0--00------------------------------------------



F-----------------------------------------------------------------------------
C--------------------------------------------------------7--7---9--6---4--   X3
G-----------------222------------------------------------------------------
C---4--6--7--4-------4---44-----------------0--------------------------




F------------------------------------------------------------------------
C-------------------------------------------------------9--9--7---4---
G----------------222---------------------------------------------------
C--4--6--7--4-------4---44------------------0----------------------



F------------------------------------------------------------------------------------------------
C----------------4-----------------------------------4------------------------------4----------
G--------2h4----------5--------------------2h4-------5------------------2h4--------------
C----4------------------------0---------4--------------------00-------4---------------0~---


Atreyu albums
2004 The Curse
2002 Suicide Notes and Butterfly Kisses
The Curse tabs
02Bleeding Mascara tabbass tab
03Right Side of the Bed tabbass tab
04This Flesh a Tomb tabbass tab
05You Eclipsed by Me tabbass tab
06The Crimson tabbass tab
07The Remembrance Ballad tabbass tab
08An Interlude tabbass tab
09Corseting tabbass tab
10Demonology and Heartache tabbass tab
11My Sanity on the Funeral Pyre tabbass tab
12Nevada's Grace tabbass tab
13Five Vicodin Chased With a Shot of Clarity tabbass tab

 

1