Search tabs:
Browse artists: 0-9 | A | B | C | D | E | F | G | H | I | J | K | L | M | N | O | P | Q | R | S | T | U | V | W | X | Y | Z
/ Atreyu / The Curse (2004) / Corseting bass tab

Drop C Tuning

Intro play once fast
F-------------
C-------------
G-------------
C-0-3-5-7-8-10

Verse 2x x1 listen for timing
F---------------------------------|----------------------
C---------------------------------|----------------------
G-------3h4h5--------3h4h5--------|55555555-8888888------
C-3h4h5-------0-3h4h5-----0-000000|----------------------

Verse continue x2 x1
(listen for timing change)
F---------------------------------|------------------------
C---------------------------------|------------------------
G------3h4h5-------3h4h5----------|------------------------
C-3h4h5-----0-3h4h5-----0-00000---|12121212121212-777777777

Pre-chorus x2
F---------------------------------------------------------------
C---------------------------------------------------------------
G-------------------------------------------------------88----88
C-000-8-0-000-8-0--000-8-0-000-8-0--555-8-5-555-8-5-888----888--

Chorus
F------------------------------------------------
C------------------------------------------------
G-----------------------------------------7-8----
C-5-55555-5-55555-5-55555-5-3-5-8*-555555----88888

Play verse again
Pre chorus x1

Bridge x2
F-----------------------x3|-----end each time with---
C-------------------------|--------------------------
G----10---12---12h13h15---|-----10---13-12-10-12-10-8
C-000---0----0------------|-000----0-----------------

Chorus

Outro listen for number of times
F--------------------------------------------------------------
C--------------------------------------------------------------
G---------------------------------------------------3h4h5------
C-0000-0000-0000-0000-0000-0000-0000-0000-0000-3h4h5-------0000

Tabbed be the gingerbread assassin
Email: shadow_pandora@hotmail.com


Atreyu albums
2004 The Curse
2002 Suicide Notes and Butterfly Kisses
The Curse tabs
02Bleeding Mascara tabbass tab
03Right Side of the Bed tabbass tab
04This Flesh a Tomb tabbass tab
05You Eclipsed by Me tabbass tab
06The Crimson tabbass tab
07The Remembrance Ballad tabbass tab
08An Interlude tabbass tab
09Corseting tabbass tab
10Demonology and Heartache tabbass tab
11My Sanity on the Funeral Pyre tabbass tab
12Nevada's Grace tabbass tab
13Five Vicodin Chased With a Shot of Clarity tabbass tab

 

1