Search tabs:
Browse artists: 0-9 | A | B | C | D | E | F | G | H | I | J | K | L | M | N | O | P | Q | R | S | T | U | V | W | X | Y | Z
/ Atreyu / The Curse (2004) / My Sanity on the Funeral Pyre bass tab

Band : Atreyu
Album: The Curse
Song : My sanity on the funeral pyre

Bass: Marc McKnight
Tabbed by: I3lackDragon
Tuning: C G C F


Legend

b - bend
h - hammered	
~ - vibrato
<7> - natural harmonic	

0:00  Intro (guitard and drum)

F |-----------------------------------------------------------------|
C |-----------------------------------------------------------------|
G |-----------------------------------------------------------------|
C |-----------------------------------------------------------------|

0:17  	Riff # 1	    x6   0:32 Fill # 1           last time	

F ||---------------------------||  |--------------------------------|
C ||*-------------------------*||  |--------------------------------|
G ||*-------------------------*||  |--------------------------------|
C ||-0-0-1-0-0-3-0-xxx-1-0-1-3-||  |-0-0-1-0-0-3-0-xxx-1-0-1-0~~~~~-|

0:40  Riff # 2			      x4

F ||------------------------------------------------------||
C ||*----------------------------------------------------*||
G ||*----------------3-------------------------3-----353-*||
C ||-0-0000-00-3-5-3---5-3-131-0-0000-00-3-5-3---5-3------||

0:59 Riff # 3

F |-----------------------------------------------------------------
C |-----------------------------------------------------------------
G |-----------------------------------------------------------------
C |-0~~~00-1-111-111-111-1-0~~~00-1~~~3~~~33-0~~~00-1-111-111-111-1-

                1:08  Fill # 2
   ------------||--------------------------------|
   ------------||--------------------------------|
   ------------||--------------------------------|
   0~~~00-3~~~-||-333-333-333-555-555-555-555555-|

1:13 Riff # 4 	 		   	    x2

F ||-----------------------------------------------------------------||
C ||*---------------------------------------------------------------*||
G ||*---------------------------------------------------------------*||
C ||-555-555-555-555-888-888-888-888-111-111-111-111-333-333-333-333-||

1:32 Riff # 1  	     x3   1:40 Fill # 3

F ||---------------------------||  |-------------------------------|
C ||*-------------------------*||  |-------------------------------|
G ||*-------------------------*||  |-------------------------------|
C ||-0-0-1-0-0-3-0-xxx-1-0-1-3-||  |-0-0-1-0-0-3-0-xxx-111-111-111-|

1:44 Riff # 2			      x4

F ||------------------------------------------------------||
C ||*----------------------------------------------------*||
G ||*----------------3-------------------------3-----353-*||
C ||-0-0000-00-3-5-3---5-3-131-0-0000-00-3-5-3---5-3------||

2:04 Riff # 3

F |-----------------------------------------------------------------
C |-----------------------------------------------------------------
G |-----------------------------------------------------------------
C |-0~~~00-1-111-111-111-1-0~~~00-1~~~3~~~33-0~~~00-1-111-111-111-1-

	     2:13 Fill # 2
   ------------| |--------------------------------|
   ------------| |--------------------------------|
   ------------| |--------------------------------|
   0~~~00-3~~~-| |-333-333-333-555-555-555-555555-|

2:18 Riff # 4 			   	    x2

F ||-----------------------------------------------------------------||
C ||*---------------------------------------------------------------*||
G ||*---------------------------------------------------------------*||
C ||-555-555-555-555-888-888-888-888-111-111-111-111-333-333-333-333-||

2:37 Riff # 5 	                x2

F ||---------------------------------------||
C ||*-------------------------------------*||
G ||*-------------------------------------*||
C ||--11111-1111111-111/55555-5555555-888--||

2:57 Riff # 6

F |-----------------------------------------------------------------|
C |-----------------------------------------------------------------|
G |-----------------------------------------------------------------|
C |-111-111-111-111-111-111-111-111-555-555-555-555-555-555-555-555-|

3:06  Riff # 7	          x2

F ||---------------------------------||
C ||*-------------------------------*||
G ||*-------------------------------*||
C ||--0-11-1~~~~~~0-11-1/3-3/5-5/88--||

3:17  Riff # 8	              x2

F ||-------------------------------------||
C ||*-----------------------------------*||
G ||*-----------------------------------*||
C ||--0-11-1-1-0-xxxxxxx-0-11-13-35-588--||

0:00  outro

F |--------------------------------|
C |--------------------------------|
G |--------------------------------|
C |-0-11-1~~~~~~~~~~~~~~~~~~~~~~~--|

If you see some error, plz tell me at jasbdragon@hotmail.com


Atreyu albums
2004 The Curse
2002 Suicide Notes and Butterfly Kisses
The Curse tabs
02Bleeding Mascara tabbass tab
03Right Side of the Bed tabbass tab
04This Flesh a Tomb tabbass tab
05You Eclipsed by Me tabbass tab
06The Crimson tabbass tab
07The Remembrance Ballad tabbass tab
08An Interlude tabbass tab
09Corseting tabbass tab
10Demonology and Heartache tabbass tab
11My Sanity on the Funeral Pyre tabbass tab
12Nevada's Grace tabbass tab
13Five Vicodin Chased With a Shot of Clarity tabbass tab

 

1