Search tabs:
Browse artists: 0-9 | A | B | C | D | E | F | G | H | I | J | K | L | M | N | O | P | Q | R | S | T | U | V | W | X | Y | Z
/ Backstreet Boys / Backstreet Boys (1996) / Everybody (Backstreet's Back) bass tab

Backstreet Boys-"Everybody (Backstreet's Back)" from the album
Backstreet's Back
Tabbed by Matt Corkum (radiohead98@yahoo.com)

Key:
s: slide
h: hammer-on


This is played on the bass. It is tuned up half a step (up 1/2 step). I
have tabbed it our for basses tuned up and look below for the normal
tuning tab. The bass is overdriven.


Intro:

G#|--------------------------------------------|
D#|--------------------------------------------|
A#|---0----------------------0-----------------|
F |----------1---0------------------1----0-----|
"Everybody         Rock your body  (yeah yeah)"

G#|----------------------------------------------------------|
D#|----------------------------------------------------------|
A#|---0-------------------------0----------------------------|
F |---------1---------0------------1------------0------------|
"Everybody  Rock your body right   Backstreet's Back alright"


Verse:

G#|-----------------------| Do this twice, then pause...
D#|-----------------------|
A#|-----------------------|
F |--5-5s4-3s2-1-1-1h3-0--|

Pause: "Oh my God, we're back again
Then come back in with the end of the riff:

G#|-----------|
D#|-----------|
A#|-----------|
F |--1-1h3-0--|

That's pretty much the basics. There are some variations, but you can
mess around with the riff and figure `em out. Now for the tab for
regular tuning:

Intro:

G|--------------------------------------------|
D|--------------------------------------------|
A|---1----------------------1-----------------|
E|----------2---1-------------------2----1-----|
"Everybody         Rock your body  (yeah yeah)"

G|-----------------------------------------------------------|
D|-----------------------------------------------------------|
A|---1--------------------------1----------------------------|
E|----------2---------1------------2------------1------------|
"Everybody  Rock your body right   Backstreet's Back alright"


Verse:

G|-----------------------| Do this twice, then pause...
D|-----------------------|
A|-----------------------|
E|--6-6s5-4s3-2-2-2h4-1--|

Pause: "Oh my God, we're back again"
Then come back in with the end of the riff:


G|------------|
D|------------|
A|------------|
E|---2-2h4-1--|

That's it! You can find lyrics at any BSB site (like
http://www.backstreetboys.com/), so I figured I wouldn't include them.
Mail me with thoughts, corrections, no flames please.
Backstreet Boys-"Everybody (Backstreet's Back)" from the album Backstreet's Back
Tabbed by Matt Corkum (radiohead98@yahoo.com)

Key:
s: slide
h: hammer-on


This is played on the bass. It is tuned up half a step (up 1/2 step). I have tabbed it our for basses tuned up and look below for the normal tuning tab. The bass is overdriven.


Intro:

G#|--------------------------------------------|
D#|--------------------------------------------|
A#|---0----------------------0-----------------|
F |----------1---0------------------1----0-----|
"Everybody         Rock your body  (yeah yeah)"

G#|----------------------------------------------------------|
D#|----------------------------------------------------------|
A#|---0-------------------------0----------------------------|
F |---------1---------0------------1------------0------------|
"Everybody  Rock your body right   Backstreet's Back alright"


Verse:

G#|-----------------------| Do this twice, then pause...
D#|-----------------------|
A#|-----------------------|
F |--5-5s4-3s2-1-1-1h3-0--|

Pause: "Oh my God, we're back again
Then come back in with the end of the riff:

G#|-----------|
D#|-----------|
A#|-----------|
F |--1-1h3-0--|

That's pretty much the basics. There are some variations, but you can mess around with the riff and figure `em out. Now for the tab for regular tuning:

Intro:

G|--------------------------------------------|
D|--------------------------------------------|
A|---1----------------------1-----------------|
E|----------2---1-------------------2----1-----|
"Everybody         Rock your body  (yeah yeah)"

G|-----------------------------------------------------------|
D|-----------------------------------------------------------|
A|---1--------------------------1----------------------------|
E|----------2---------1------------2------------1------------|
"Everybody  Rock your body right   Backstreet's Back alright"


Verse:

G|-----------------------| Do this twice, then pause...
D|-----------------------|
A|-----------------------|
E|--6-6s5-4s3-2-2-2h4-1--|

Pause: "Oh my God, we're back again
Then come back in with the end of the riff:


G|------------|
D|------------|
A|------------|
E|---2-2h4-1--|


Backstreet Boys albums
2005 Never Gone
2000 Black & Blue
1999 Millennium
1997 Backstreet's Back
1996 Backstreet Boys
Backstreet Boys tabs
01We've Got It Goin' On tabbass tab
02Quit Playing Games (With My Heart) tabbass tab
03As Long as You Love Me tabbass tab
04Everybody (Backstreet's Back) tabbass tab
05All I Have to Give tabbass tab
08I'll Never Break Your Heart tabbass tab

 

1