Search tabs:
Browse artists: 0-9 | A | B | C | D | E | F | G | H | I | J | K | L | M | N | O | P | Q | R | S | T | U | V | W | X | Y | Z
/ Billy Joel / Glass Houses (1980) / It's Still Rock And Roll To Me bass tab

>From John Speas at kaspeas@worldnet.att.net
Bass for "It's Still Rock and Roll to Me" by Billy Joel

This piece is in 12/8 time in the style of swung 8th-notes.


                   Play 4x
G|-----------------------------|
D|.---------------------------.|
A|.-3---3--3---3--3---3--3---3.|
E|-----------------------------|

|-----------------------------|------------------------------|
|.----------------------------|------------------------------|
|.-3---3--3---3--3---3--3---3-|------------------------------|
|-----------------------------|--0---0--0---0--0---0--0---0--|

|-----------------------------|-----------------------------|
|-----------------------------|----------------------------.|
|--1---1--1---1--1---1--1---1-|----------------------------.|
|-----------------------------|--1---1--1---1--1---1--1---1-|

|-----------------------------|-----------------------------|
|-----------------------------|-----------------------------|
|-----------------------------|--0---0--0---0--0---0--0---0-|
|--0---0--0---0--0---0--0---0-|-----------------------------|

|-----------------------------|-----------------------------|
|-----------------------------|-----------------------------|
|-----------------------------|--5---5--5---5---------------|
|--0---0--0---0--0---0--0---0-|----------------3---3--3---3-|

|-----------------------------|-----------------------------|
|-----------------------------|-----------------------------|
|--3---3--3---3---------------|--1---1--1---1---------------|
|----------------0---0--0---0-|----------------1---1--1---1-|

|-----------------------------|-----------------------------|
|-----------------------------|-----------------------------|
|--0---0--0---0---------------|--3---3--3-3-3--3-3-3--3-3-3-|
|----------------3---3--3---3-|-----------------------------|

|-----------------------------|
|-----------------------------|
|--3-3-3--3-3-3--3-3-3--3-3-3-|
|-----------------------------|

     -Repeat the whole phrase with the exception of the intro-

|-----------------------------|-----------------------------|
|-----------------------------|-----------------------------|
|-----------------------------|-----------------------------|
|--3---3--3---3--3---3--3---3-|--1---1--1---1--1---1--1---1-|

|-----------------------------|-----------------------------|
|-----------------------------|-----------------------------|
|-----------------------------|--0---0--0---0--0---0--0---0-|
|--0---0--0---0--0---0--0---0-|-----------------------------|

|-----------------------------|-----------------------------|
|-----------------------------|-----------------------------|
|-----------------------------|-----------------------------|
|--3---3--3---3--3---3--3---3-|--1---1--1---1--1---1--1---1-|

|-----------------------------|-----------------------------|
|-----------------------------|-----------------------------|
|-----------------------------|-----------------------------|
|--0---0--0---0--0---0--0---0-|--4---4--4---4--4---4--4---4-|

|-----------------------------|-----------------------------|---------------|
|--1---1--1---1--1---1--1---1-|--3---3--3---3--3---3--3---3-|--5------------|
|-----------------------------|-----------------------------|---------------|
|-----------------------------|-----------------------------|---------------|

|-----------------------------|------------------------------|
|.----------------------------|------------------------------|
|.-3---3--3---3--3---3--3---3-|------------------------------|
|-----------------------------|--0---0--0---0--0---0--0---0--|

|-----------------------------|-----------------------------|
|-----------------------------|----------------------------.|
|--1---1--1---1--1---1--1---1-|----------------------------.|
|-----------------------------|--1---1--1---1--1---1--1---1-|

|-----------------------------|-----------------------------|
|-----------------------------|-----------------------------|
|-----------------------------|--0---0--0---0--0---0--0---0-|
|--0---0--0---0--0---0--0---0-|-----------------------------|

|-----------------------------|-----------------------------|
|-----------------------------|-----------------------------|
|-----------------------------|--5---5--5---5---------------|
|--0---0--0---0--0---0--0---0-|----------------3---3--3---3-|

|-----------------------------|-----------------------------|
|-----------------------------|-----------------------------|
|--3---3--3---3---------------|--1---1--1---1---------------|
|----------------0---0--0---0-|----------------1---1--1---1-|

|-----------------------------|-----------------------------|
|-----------------------------|-----------------------------|
|--0---0--0---0---------------|--3---3--3-3-3--3-3-3--3-3-3-|
|----------------3---3--3---3-|-----------------------------|

|-----------------------------|
|-----------------------------|
|--3-3-3--3-3-3--3-3-3--3-3-3-|
|-----------------------------|

|-----------------------------|-----------------------------|
|-----------------------------|-----------------------------|
|-----------------------------|-----------------------------|
|--3---3--3---3--3---3--3---3-|--1---1--1---1--1---1--1---1-|

|-----------------------------|-----------------------------|
|-----------------------------|-----------------------------|
|-----------------------------|--0---0--0---0--0---0--0---0-|
|--0---0--0---0--0---0--0---0-|-----------------------------|

|-----------------------------|-----------------------------|
|-----------------------------|-----------------------------|
|-----------------------------|-----------------------------|
|--3---3--3---3--3---3--3---3-|--1---1--1---1--1---1--1---1-|

|-----------------------------|-----------------------------|
|-----------------------------|-----------------------------|
|-----------------------------|-----------------------------|
|--0---0--0---0--0---0--0---0-|--4---4--4---4--4---4--4---4-|

|-----------------------------|-----------------------------|
|--1---1--1---1--1---1--1---1-|--3---3--3---3--3---3--3---3-|
|-----------------------------|-----------------------------|
|-----------------------------|-----------------------------|

|-------------|---------------|
|--5----------|--(5)----------|
|-------------|---------------|
|-------------|---------------|

|-----------------------------|------------------------------|
|.----------------------------|------------------------------|
|.-3---3--3---3--3---3--3---3-|------------------------------|
|-----------------------------|--0---0--0---0--0---0--0---0--|

|-----------------------------|-----------------------------|
|-----------------------------|----------------------------.|
|--1---1--1---1--1---1--1---1-|----------------------------.|
|-----------------------------|--1---1--1---1--1---1--1---1-|

|-----------------------------|-----------------------------|
|-----------------------------|-----------------------------|
|-----------------------------|--0---0--0---0--0---0--0---0-|
|--0---0--0---0--0---0--0---0-|-----------------------------|

|-----------------------------|-----------------------------|
|-----------------------------|-----------------------------|
|-----------------------------|--5---5--5---5---------------|
|--0---0--0---0--0---0--0---0-|----------------3---3--3---3-|

|-----------------------------|-----------------------------|
|-----------------------------|-----------------------------|
|--3---3--3---3---------------|--1---1--1---1---------------|
|----------------0---0--0---0-|----------------1---1--1---1-|

|-----------------------------|-----------------------------|
|-----------------------------|-----------------------------|
|--0---0--0---0---------------|--3---3--3-3-3--3-3-3--3-3-3-|
|----------------3---3--3---3-|-----------------------------|

|----------------|--------------|--------------|------------|
|----------------|--------------|--------------|------------|
|--3-------------|--1-----------|--------------|--------3---|
|---------0------|--------1-----|--3-----------|------------|


Billy Joel albums
1993 River of Dreams
1989 Storm Front
1986 Bridge
1983 An Innocent Man
1982 The Nylon Curtaine
1980 Glass Houses
1978 52nd Street
1977 The Stranger
1976 Turnstiles
1973 Piano Man
1972 Cold Spring Harbour
Glass Houses tabs
01You May Be Right tabbass tab
04It's Still Rock And Roll To Me tabbass tab

 

1