Search tabs:
Browse artists: 0-9 | A | B | C | D | E | F | G | H | I | J | K | L | M | N | O | P | Q | R | S | T | U | V | W | X | Y | Z
/ / / bass tab

Blind Melon
John Sinclair
Tabbed by Spektran (lawrence@megsinet.com, ICQ # 3353374)

I didn't bother to tab out all the chorus variations, just the
basic chorus. You should be able to figure out the rest.

Verse (p1x2, p2x2, p1x2, tail)
           P1          P2         Tail
G:-----------:-----------:------------:
D:-----------:-----------:------------:
A:-----------:-----------:------------:
E:-0-0-00-0--:-5-5-55-5--:-0-----5-0--:

Pre-Chorus

G:-----------:
D:-----------:
A:-----------:
E:-7-7-7--5--:

Chorus

G:--------7-9--13h12--:
D:--------------------:
A:-5h7----------------:
E:-----0--------------:


albums
tabs

 

1