Search tabs:
Browse artists: 0-9 | A | B | C | D | E | F | G | H | I | J | K | L | M | N | O | P | Q | R | S | T | U | V | W | X | Y | Z
/ / / bass tab

Blind Melon
Pull
Tabbed by Spektran (lawrence@megsinet.com, ICQ # 3353374)

Intro - Part One
G:------------
D:-2-0--------
A:-----2-2----
E:---------5\-

Part 2
G:----------------------------------
D:----------------------------------
A:-2-0-2--020------------0---0------
E:------------2-0-2--0-2---2----2-0-

Verse
G:---------------------------------------:
D:--------------------------------------*:
A:-2-02-02--5-45-45--7-57--5-77-5-22----*:
E:-----------------------------------5\--:

Intro Part 2

Pre-Chorus
G:------------------------
D:---------------5H7-5----
A:-5-7-5-4-5-5-7-------5\-
E:------------------------

Chorus
G:-------------
D:-------------
A:-----5-------
E:-0H3---0H3-0-

Ending (Main riff, 3 variations)
G:----------------------:------------------------
D:---0-2----------------:-------0-2--------------
A:-4-----0--------------:-0-2-4-----0------------
E:----------2/4-2-0-2-0-:--------------3-2-0-2-0-

G:--------------------------:------------------------------
D:-------0-2----------------:-------0-2--------------------
A:-0-2-4-----0--------------:-0-2-4-----0-0-0--------------
E:--------------44-22-0-2-0-:------------------2/4-2-0-2-0-


albums
tabs

 

1