Search tabs:
Browse artists: 0-9 | A | B | C | D | E | F | G | H | I | J | K | L | M | N | O | P | Q | R | S | T | U | V | W | X | Y | Z
/ / / bass tab

Blind Melon
Dumptruck
Tabbed by Spektran (lawrence@megsinet.com, ICQ # 3353374)

Verse 
G:---6H7P6------------6-6H7-999--------6-6H7P6------
D:---------7--------9----------------9---------7----
A:-----------9----9----------------9-------------9--
E:-7------------7----------------7------------------

G:-------6-6H7P6-9-6H7P6----------6-6H7P6------
D:-----9-----------------9------9---------7----
A:---9------------------------9-------------9--
E:-7------------------------7------------------

G:-------6-6H7-999--------6-6H7P6------------6-6H7P6-6-9--
D:-----9----------------9---------7--------9--------------
A:---9----------------9-------------9----9----------------
E:-7----------------7------------------7------------------

Chorus
G:----------------------------------------------
D:*----------------------5---------------------*
A:*-------5---5------5-7----------5---5------3-*
E:--7-555------7-555--------7-555------7-555----

Ending (First part is main part, the rest is variations)
G:------------------------:---------------------------------------
D:------------------------:----------------------------5---5-5----
A:-7-7---------3---7-7-5--:-7-7---------3---7-7-5--5H7---5-----5--
E:-----5-3-3H5---5--------:-----5-3-3H5---5-----------------------

G:-------------------------------------:----------------------------------
D:----------------------------5-7-5----:-----------------777-5-5----------
A:-7-7---------3---7-7-5--5H7-------5--:-7-7---------3-----------7---5----
E:-----5-3-3H5---5---------------------:-----5-3-3H5---5-----------5---5--

Outro
G:-------------:----------:--------
D:-------------:----------:--------
A:-------------:-7-5------:---7----
E:-0--2--5--7--:-----5-7--:-7---0--


albums
tabs

 

1