Search tabs:
Browse artists: 0-9 | A | B | C | D | E | F | G | H | I | J | K | L | M | N | O | P | Q | R | S | T | U | V | W | X | Y | Z
/ / / bass tab

Blind Melon
Galaxy
Tabbed by Spektran (lawrence@megsinet.com, ICQ # 3353374)

Intro
G:-----------------------------------
D:-----------------------------------
A:-----------5555-3-5----------------
E:-000--333------------000-333-1-1-1-

Verse
G:------------------------------------
D:------------------------------------
A:-----------5555-3-5-----------------
E:-000--333------------000-333-111111-

Chorus
G:--------------------------------------
D:---------------------7---7------------
A:-3--0-3-2----------7---7---5-6-7--5-7-
E:----------3--0-3-3--------------------

Bridge (after chorus, and at end of song)
G:----------------------------
D:----------------------------
A:-777777-555555-333333333333-
E:----------------------------


albums
tabs

 

1