Search tabs:
Browse artists: 0-9 | A | B | C | D | E | F | G | H | I | J | K | L | M | N | O | P | Q | R | S | T | U | V | W | X | Y | Z
/ / / bass tab

Blind Melon
St. Andrew's Fall
Tabbed by Spektran (lawrence@megsinet.com, ICQ # 3353374)


G:------:-----5-7--5H7P5------5-7--5H7P5----------------------------------
D:------:*---------------7---------------7------7-----7-7------7-----7-7--
A:-5----:*--5---------------5---------------------5H7------------5H7------
E:---7--:-----------------------------------5-5------------5-5------------

G:---5-7--5H7P5------5-7--5H7P9---------------------------------
D:--------------7---------------7-------7-----7-7------7-5------
A:-5---------------5----------------------5H7--------------7-5--
E:----------------------------------5-5------------5-5----------

G:-------------------------------------------6-7-9-11-9-11-9-----
D:---------------------------------------7-7-----------------11--
A:--------3H5-3-2----3H5-3-2----3H5-3-2--------------------------
E:-0-0-1----------1----------1-----------------------------------

                                                    1ST TIME ONLY
G:-------------------------------------------------:-----5H7P5-----:
D:-------------------------------------------------:-7-7-------7--*:
A:--------3H5-3-2----3H5-3-2----3H5-3-2---2-3-4-5--:--------------*.
E:-0-0-1----------1----------1----------3----------:---------------:

  SECOND TIME ONLY         MUCH IMPROVISING ON THIS PART
G:--------------:-7-:-----:------------------------------
D:-7-6-5-44-33--:---:-/7\-:-9--7-9-5--5-7---5-7-5-7-5----
A:--------------:---:-----:---------------------------7--
E:--------------:---:-----:------------------------------


albums
tabs

 

1