Search tabs:
Browse artists: 0-9 | A | B | C | D | E | F | G | H | I | J | K | L | M | N | O | P | Q | R | S | T | U | V | W | X | Y | Z
/ Blue Oyster Cult / Secret Treaties (1974) / Astronomy bass tab

Title: Astronomy
Artist: Blue Oyster Cult
Album: Secret Treaties


~ - Let note ring
h - Hammer
p - Pull

Intro:

G -----------------------------------------------------------------
D -----------------------------------------------------------------
A -----------------------------------------------------------------
E --0~--------------0~----------7----------------------------------

Bridge Riff:
G -----------------------------------------------------------------
D -----------------------------------------------------------------
A ---------2--0h2--------------------------------------------------
E -0---0------------3----------------------------------------------

Verse:

G -----------------------------------------------------------------
D -----------------------------------------------------------------
A --------5-----3---0h2----------------3p2-----3------------------- x2
E --0--------------------3---0~-------------3-----3----------------

G -----------------------------------------------------------------
D -------------------0---------------------------------------------
A --3---3p2-------2-----3---3-2------------------------------------
E -----------3-3---------------------------------------------------

G -----------------------------------------------------------------
D -----------------------------------------------------------------
A --------5-----3---0h2----------------3p2-----3-------------------
E --0--------------------3---0~-------------3-----3----------------

Prechorus:

G -----------------------------------------------------------------
D -2------0--------------------------------------------------------
A ---------------3-----3-------2----------------------------------- x2
E -----------------------3-0-3-------------------------------------

G ---------------------5-2-0---------------------------------------
D -2------0------------------2-------------------------------------
A ---------------3-------------3-----------------------------------
E -----------------------------------------------------------------

G -----------------------------------------------------------------
D -2------0----------------------0-----0---------------------------
A ---------------3-----3-----3------0------------------------------
E ------------------------3----------------------------------------

Chorus:

G -----------------------------------------------------------------
D -2----2--2-----------0h2--0----0--0-----2--2---------------------
A ---------------3--3----------------------------0h3h5-------------
E -----------------------------------------------------------------

Postchorus:

G -----------------------------------------------------------------
D -2----2--2-------------0-------0-----------0-------0-------------
A ---------------3--3--------3-------3--3--------3-------3--3------
E -----------------------------------------------------------------

G -----------------------------------------------------------------
D -0-------0-------------------------------------------------------
A -----3-------3--3------------------------------------------------
E ----------------------0~-------0~-------0~-------0~-------0~---7-

Outro pt.1:

G -----------------------------------------------------------------
D -2p0-2~----------2p0-2~-------5p2-0-2~-----7p5-2-2~--------------
A -----------------------------------------------------------------
E -----------------------------------------------------------------

G -----------------------------------------------------------------
D -7p5-2p0-2~---2--2--2---2--2--2--2-2-2-2-2-2-2-2-2-2-2-2-2-2-2-2-
A -----------------------------------------------------------------
E -----------------------------------------------------------------

Outro pt.2:

G -----------------------------------------------------------------
D -2--2--2---0--0--------------0--0--------------------------------
A -------------------3--3--3--------------------------------------- x8
E -----------------------------------------------------------------

G -----------------------------------------------------------------
D -----------------------------------------------------------------
A -----------------------------------------------------------------
E -0~--------------------------------------------------------------




Song Order:

Intro
Bridge Riff x4

Verse
Bridge Riff x7

Verse
Bridge Riff x1

Prechorus
Chorus x9
Postchorus

Verse
Bridge Riff x2

Prechorus
Chorus x7

Outro pt.1
Outro pt.2


Blue Oyster Cult albums
2005 Singles Collection
2001 The Curse of the Hidden Mirror
1998 Heaven Forbid
1985 Club Ninja
1983 The Revolution by Night
1981 Fire of Unknown Origin
1980 Cultosaurus Erectus
1977 Spectres
1976 Agents of Fortune
1974 Secret Treaties
1973 Tyranny and Mutation
1972 Blue Oyster Cult
Secret Treaties tabs
01Career Of Evil tabbass tab
02Subhuman tabbass tab
08Astronomy tabbass tab

 

1