Search tabs:
Browse artists: 0-9 | A | B | C | D | E | F | G | H | I | J | K | L | M | N | O | P | Q | R | S | T | U | V | W | X | Y | Z
/ Bob Dylan / Bringing It All Back Home (1965) / Subterranean Homesick Blues bass tab

Artist: Bob Dylan
Song: Subterranean Homesick Blues
Album: Bringing It All Back Home
Tabbed by: Llama!
Standard tuning (EADG)

Intro - Bass enters at 0:03
G|--2-----2--2---0--2-----2------0--
D|-----2-------2-------2-----2-2----
A|----------------------------------
E|----------------------------------

Part A - 0:09
G|--2-----2------0--2-----2------0--2-----2-----0--2-----2-----0--
D|-----2-----2-2-------2-----2-2-------2----2-2-------2----2-2----
A|----------------------------------------------------------------
E|----------------------------------------------------------------

Part B - 0:20
G|--7-----7--7-7-5--2-----2---0----2-2--------4--------0--2-----2------0--
D|-----7---------------2----2----2-----2-2--2---2--2-2-------2-----2-2----
A|------------------------------------------------------------------------
E|------------------------------------------------------------------------

G|--2-----2------0--2-----2------0--
D|-----2-----2-2-------2-----2-2----
A|----------------------------------
E|----------------------------------

Repeat Parts A and B alternately until...

Outro - 2:12
G|--2-----2------0--2-----2-------0--
D|-----2-----2-2-------2-----2-2-----    Repeat until
A|-----------------------------------    fade out
E|-----------------------------------

Et fini.


Bob Dylan albums
2003 Masked and Anonymous
2001 Love and Theft
1997 Time Out of Mind
1993 World Gone Wrong
1992 Good as I Been to You
1990 Under the Red Sky
1989 Oh Mercy
1988 Down in the Groove
1986 Knocked Out Loaded
1985 Empire Burlesque
1983 Infidels
1981 Shot of Love
1980 Saved
1979 Slow Train Coming
1978 Street Legal
1976 Desire
1975 The Basement Tapes
1975 Blood on the Tracks
1974 Planet Waves
1973 Dylan
1970 New Morning
1970 Self Portrait
1969 Nashville Skyline
1967 John Wesley Harding
1966 Blonde on Blonde
1965 Highway 61 Revisited
1965 Bringing It All Back Home
1964 Another Side of Bob Dylan
1964 The Times They Are A-Changin'
1963 The Freewheelin' Bob Dylan
1962 Bob Dylan
Bringing It All Back Home tabs
01Subterranean Homesick Blues tabbass tab
02She Belongs to Me tabbass tab
03Maggie's Farm tabbass tab
04Love Minus Zero/No Limit tabbass tab
07Bob Dylan's 115th Dream tabbass tab
08Mr. Tambourine Man tabbass tab
09Gates of Eden tabbass tab
11It's All over Now, Baby Blue tabbass tab

 

1