Search tabs:
Browse artists: 0-9 | A | B | C | D | E | F | G | H | I | J | K | L | M | N | O | P | Q | R | S | T | U | V | W | X | Y | Z
/ Bob Dylan / Highway 61 Revisited (1965) / Like a Rolling Stone bass tab

Artist: Bob Dylan
Song: Like A Rolling Stone
Tabbed by: Llama!
Standard tuning (EADG)

Intro - 0:01
G|----------------------------------
D|----------------------------------
A|--3--3-3--3--3-3--3--3-3--3--3-3--
E|----------------------------------


Verse - 0:11
G|-----------------------------------------------
D|-----------------------------------------------
A|--3--3-5--5-7--7-8--8-10--10-10--10-10--10-10--
E|-----------------------------------------------

G|---------------------------------------------------
D|---------------------------------------------------
A|--3--3-5--5-7--7-8--10--10-10--10-10--10-10--10-9--
E|---------------------------------------------------


Bridge - 0:30
G|----------------------------------------------------------
D|----------------------------------------------------------
A|--8--8-8--10--10-10--8--8-8--10--10-10--8--8-7--7-5--5-3--  x2
E|----------------------------------------------------------

G|----------------------------------------------------
D|----------------------------------------------------
A|--5--5-5-5--5-5--8--8-8-8--10-10-10-10-10-10-10-10--
E|----------------------------------------------------


Chorus - 1:00
G|--------------------------
D|---------5---3--5---5--5--
A|--3---3-------------------   x6
E|--------------------------


Post Chorus - 1:30
G|--------------
D|--5--5--5--5--
A|--------------
E|--------------

Repeat Verse -  1:33

Bridge II - 1:53
G|-----------------------------------------------------------------------------
D|-----------------------------------------------------------------------------
A|--8--8-7-8--7--10-10-10--10-9--8-8-8--7-8--10-10-10--10-9--8--8-7--7-5--5-3--  x2
E|-----------------------------------------------------------------------------

G|---------------------------------------------------
D|---------------------------------------------------
A|--5--5-5--5--8--8-8--8-10--10-10-10-10-10-10-10-8--
E|---------------------------------------------------

Repeat Chorus - 2:23

Post Chorus II - 2:54
G|-----------------------------------
D|----------3--3-3--5--5-5--5-5-5-5--
A|--3--3-3---------------------------
E|-----------------------------------

Repeat Verse - 3:01
Repeat Bridge - 3:21
Repeat Chorus - 3:52
Repeat Post Chorus II - 4:22
Repeat Verse - 4:29
Repeat Bridge - 4:29
Repeat Chorus - 5:20

Outro - 4:45
G|-----------------------
D|-------3--3-5--5-5--3--    Repeat until
A|--3--3-----------------    fade out
E|-----------------------

Et fini.


Bob Dylan albums
2003 Masked and Anonymous
2001 Love and Theft
1997 Time Out of Mind
1993 World Gone Wrong
1992 Good as I Been to You
1990 Under the Red Sky
1989 Oh Mercy
1988 Down in the Groove
1986 Knocked Out Loaded
1985 Empire Burlesque
1983 Infidels
1981 Shot of Love
1980 Saved
1979 Slow Train Coming
1978 Street Legal
1976 Desire
1975 The Basement Tapes
1975 Blood on the Tracks
1974 Planet Waves
1973 Dylan
1970 New Morning
1970 Self Portrait
1969 Nashville Skyline
1967 John Wesley Harding
1966 Blonde on Blonde
1965 Highway 61 Revisited
1965 Bringing It All Back Home
1964 Another Side of Bob Dylan
1964 The Times They Are A-Changin'
1963 The Freewheelin' Bob Dylan
1962 Bob Dylan
Highway 61 Revisited tabs
01Like a Rolling Stone tabbass tab
04From a Buick 6 tabbass tab
05Ballad of a Thin Man tabbass tab
06Queen Jane Approximately tabbass tab
07Highway 61 Revisited tabbass tab
08Just Like Tom Thumb's Blues tabbass tab
09Desolation Row tabbass tab

 

1