Search tabs:
Browse artists: 0-9 | A | B | C | D | E | F | G | H | I | J | K | L | M | N | O | P | Q | R | S | T | U | V | W | X | Y | Z
/ Bob Dylan / Infidels (1983) / Jokerman bass tab

Jokerman by Bob Dylan. Fantastic song.

Bass starts with lyrics after short drum intro

Verse
   G|------3-------3-------3-------3--|
   D|--------------------------------3|
   A|--1-1---1-1-1---1-1-1---1-1-1----|
   E|---------------------------------|
       Standin' on the water, castin' your bread.....


Pre-Chorus
   G|-------------------------------------3-------3|
   D|-----------------3-3-3------------------------|
   A|-3-3-3-3-3-3-3-3-------5-5-3-1---1-1---1-1-1--|
   E|-------------------------------3--------------|
        Freedom just around the corner for you

  G|-------3-------3-------------------------------|
   D|-----------------3-----------------3-3-3-------|
   A|-1-1-1---1-1-1-----3-3-3-3-3-3-3-3-------5-5-3-|
   E|-----------------------------------------------|
                   But with truth so far off...

   G|---------3-----|
   D|---------------|
   A|-1---1-1---1-1-|
   E|---3-----------|
      will it do?


Chorus
   G|--------------------------------3-"3-2"2-0"0---|
   D|-0-1--5--1-3--3-3--1-1--1--------------------1-|
   A|--------------------------1-3-1----------------|
   E|-----------------------------------------------|
                Jokerman dance...     Bird fly high....

   G|---------------3-------3-------3-----------|
   D|-0"0-1-3-5---------------------------------|
   A|-----------1-1---1-1-1---1-1-1---1-1-1---1-|
   E|---------------------------------------3---|
      Ooh ooooh jokerman

Order:
Verse x6
Pre-Chorus
Chorus

Order is always the same except after the third and forth
chorus (I think) when the verse is x9 instead of x6.
 I think its right, but its my first tab, so its
probably not.


Bob Dylan albums
2003 Masked and Anonymous
2001 Love and Theft
1997 Time Out of Mind
1993 World Gone Wrong
1992 Good as I Been to You
1990 Under the Red Sky
1989 Oh Mercy
1988 Down in the Groove
1986 Knocked Out Loaded
1985 Empire Burlesque
1983 Infidels
1981 Shot of Love
1980 Saved
1979 Slow Train Coming
1978 Street Legal
1976 Desire
1975 The Basement Tapes
1975 Blood on the Tracks
1974 Planet Waves
1973 Dylan
1970 New Morning
1970 Self Portrait
1969 Nashville Skyline
1967 John Wesley Harding
1966 Blonde on Blonde
1965 Highway 61 Revisited
1965 Bringing It All Back Home
1964 Another Side of Bob Dylan
1964 The Times They Are A-Changin'
1963 The Freewheelin' Bob Dylan
1962 Bob Dylan
Infidels tabs
01Jokerman tabbass tab
02Sweetheart Like You tabbass tab
04License to Kill tabbass tab
05Man of Peace tabbass tab
07I and I tabbass tab
08Don't Fall Apart on Me Tonight tabbass tab

 

1