Search tabs:
Browse artists: 0-9 | A | B | C | D | E | F | G | H | I | J | K | L | M | N | O | P | Q | R | S | T | U | V | W | X | Y | Z
/ Bob Dylan / Love and Theft (2001) / Tweedle Dee and Tweedle Dum bass tab

Artist: Bob Dylan
Song: Tweedle Dee and Tweedle Dum
Album: Love and Theft
Tabbed by: Llama!
Standard tuning (EADG)

Bass enters at 0:05
Part A
G|-------------------
D|-------------------
A|---2-----2-----0---
E|------2-----2------

0:23 - Part B
G|--------------------
D|------------0-1-2---
A|---2-----2----------
E|------2-------------

0:25 - Part C
G|---------------------------------------------------
D|---2-----2-----0---2-----2-----0---2-----2--2--0---
A|------2-----2---------2-----2---------2------------
E|---------------------------------------------------

Repeat the three parts throughout the song.

Et fini.


Bob Dylan albums
2003 Masked and Anonymous
2001 Love and Theft
1997 Time Out of Mind
1993 World Gone Wrong
1992 Good as I Been to You
1990 Under the Red Sky
1989 Oh Mercy
1988 Down in the Groove
1986 Knocked Out Loaded
1985 Empire Burlesque
1983 Infidels
1981 Shot of Love
1980 Saved
1979 Slow Train Coming
1978 Street Legal
1976 Desire
1975 The Basement Tapes
1975 Blood on the Tracks
1974 Planet Waves
1973 Dylan
1970 New Morning
1970 Self Portrait
1969 Nashville Skyline
1967 John Wesley Harding
1966 Blonde on Blonde
1965 Highway 61 Revisited
1965 Bringing It All Back Home
1964 Another Side of Bob Dylan
1964 The Times They Are A-Changin'
1963 The Freewheelin' Bob Dylan
1962 Bob Dylan
Love and Theft tabs
01Tweedle Dee and Tweedle Dum tabbass tab
02Mississippi tabbass tab
04Bye and Bye tabbass tab
05Lonesome Day Blues tabbass tab
07High Water (For Charley Patton) tabbass tab
08Moonlight tabbass tab
09Honest With Me tabbass tab

 

1