Search tabs:
Browse artists: 0-9 | A | B | C | D | E | F | G | H | I | J | K | L | M | N | O | P | Q | R | S | T | U | V | W | X | Y | Z
/ Bob Dylan / Nashville Skyline (1969) / Lay Lady Lay bass tab

tabbed by azum      sarahlynchesme@yahoo.com
         x2                    x3
g:---------|-----------|---------|----------------------------|-----------|
d:-----5---|-3/7-6-5-4-|-----5---|----------------------------|-3/7-6-5-4-|
a:---4---2-|-----------|---4---2-|-57-79-7---------7-79-7-----|-----------|
e:-5-------|-----------|-5-------|--------5-65-55-6------5-65-|-----------|

                      x2
g:---------------------|---------|-------------------------------|-----------|
d:-----5-----3/7-6-5-4-|-----5---|-------------------------------|-3/7-6-5-4-|
a:---4---2-------------|---4---2-|-57-9-7---------7-79-7---------|-----------|
e:-5-------------------|-5-------|-------5-65-55-6------5-6-5-65-|-----------|


g:---------|
d:-----5---|
a:---4---2-|
e:-5-------|

g:-----------------------------------------------------------------------------|
d:-----------------------------------------------------------------7-----------|
a:-35-5-45-5-79------7-5-5-55---------7---7---7--5-35-5-79---5-5-3---5-3-3-3-33|
e:--------------5-565--------75-5-5-75-5h6-5h6------------5-5---5--------------|
         x2             x2
g:---------|----|---------|------------------------------|-----------|
d:-----5---|----|-----5---|------------------------------|-3/7-6-5-4-|
a:---4---2-|-04-|---4---2-|--3--7-9-57-----5-7-79-7------|-----------|
e:-5-------|----|-5-------|-5---------5-565--------5-5-5-|-----------|


g:---------------------|
d:-----5---------------|
a:---4---2-----2-4-5-0-|
e:-5---------5---------|


Bob Dylan albums
2003 Masked and Anonymous
2001 Love and Theft
1997 Time Out of Mind
1993 World Gone Wrong
1992 Good as I Been to You
1990 Under the Red Sky
1989 Oh Mercy
1988 Down in the Groove
1986 Knocked Out Loaded
1985 Empire Burlesque
1983 Infidels
1981 Shot of Love
1980 Saved
1979 Slow Train Coming
1978 Street Legal
1976 Desire
1975 The Basement Tapes
1975 Blood on the Tracks
1974 Planet Waves
1973 Dylan
1970 New Morning
1970 Self Portrait
1969 Nashville Skyline
1967 John Wesley Harding
1966 Blonde on Blonde
1965 Highway 61 Revisited
1965 Bringing It All Back Home
1964 Another Side of Bob Dylan
1964 The Times They Are A-Changin'
1963 The Freewheelin' Bob Dylan
1962 Bob Dylan
Nashville Skyline tabs
01Girl from the North Country tabbass tab
04I Threw It All Away tabbass tab
06Lay Lady Lay tabbass tab
09Country Pie tabbass tab
10Tonight I'll Be Staying Here With You tabbass tab

 

1