Search tabs:
Browse artists: 0-9 | A | B | C | D | E | F | G | H | I | J | K | L | M | N | O | P | Q | R | S | T | U | V | W | X | Y | Z
/ Bob Dylan / Oh Mercy (1989) / Everything Is Broken bass tab

Artist: Bob Dylan
Song: Everything is Broken
Tabbed by: Llama!
Standard tuning (EADG)

Intro - Bass enters at 0:07
G|-------------------
D|-------------------   x4
A|----------1-2-1-2--
E|--0-0-3-3----------


Verse - 0:14
G|-------------------------------------------------------------------
D|----------1-2-1-2---------1-2-1-2----------------------------------
A|--0-0-3-3---------0-0-3-3-----------------1-2-1-2---------1-2-1-2--
E|----------------------------------0-0-3-3---------0-0-3-3----------


Chorus - 0:29
G|------------4---2----------------------------------------------------
D|--------------4----------------0-2-----------------------------------
A|--2-2-2-2-2--------0-0-0-0-0-3--------------1-2-1-2---------1-2-1-2--
E|------------------------------------0-0-3-3---------0-0-3-3----------


Repeat Intro - 0:36
Repeat Verse - 0:43

Chorus II - 0:58
G|---------------------------------------------------------------------
D|---------------------------------------------------------------------
A|--2-2-2-2-2-2-2-2--0-0-0-0-0-0-0-0----------1-2-1-2---------1-2-1-2--
E|------------------------------------0-0-3-3---------0-0-3-3----------

Repeat Intro - 1:05

Bridge - 1:12
G|--------------2-4-------------------------------0-2-------------------
D|----------------------------------------------------------------------
A|--2-2-2-2-2-2------2-2-2-2-2-2---0--0-0-0-0-0-0------0-0-0-0-0-0-5-7--
E|-------------------------------3--------------------------------------

Repeat Verse - 1:19
Repeat Chorus II - 1:34
Repeat Verse - 1:41
Repeat Chorus - 1:56

Bridge II - 2:03
G|------------------------------------------------0-2------------------
D|---------------------------------------------------------------------
A|--2-2-2-2-2-2-0-2--2-2-2-2-2-2---0--0-0-0-0-0-0-----0-0--------------
E|-------------------------------3------------------------3-3-2-2-1-1--

Repeat Verse - 2:10
Repeat Chorus - 2:25
Repeat Verse - 2:33
Repeat Chorus - 2:47
Repeat Verse - 2:55 and fade out...

Et fini.


Bob Dylan albums
2003 Masked and Anonymous
2001 Love and Theft
1997 Time Out of Mind
1993 World Gone Wrong
1992 Good as I Been to You
1990 Under the Red Sky
1989 Oh Mercy
1988 Down in the Groove
1986 Knocked Out Loaded
1985 Empire Burlesque
1983 Infidels
1981 Shot of Love
1980 Saved
1979 Slow Train Coming
1978 Street Legal
1976 Desire
1975 The Basement Tapes
1975 Blood on the Tracks
1974 Planet Waves
1973 Dylan
1970 New Morning
1970 Self Portrait
1969 Nashville Skyline
1967 John Wesley Harding
1966 Blonde on Blonde
1965 Highway 61 Revisited
1965 Bringing It All Back Home
1964 Another Side of Bob Dylan
1964 The Times They Are A-Changin'
1963 The Freewheelin' Bob Dylan
1962 Bob Dylan
Oh Mercy tabs
03Everything Is Broken tabbass tab
05Man in the Long Black Coat tabbass tab
06Most of the Time tabbass tab
08Disease of Conceit tabbass tab

 

1