Search tabs:
Browse artists: 0-9 | A | B | C | D | E | F | G | H | I | J | K | L | M | N | O | P | Q | R | S | T | U | V | W | X | Y | Z
/ Bob Dylan / Planet Waves (1974) / Forever Young bass tab

Artist: Bob Dylan
Song: Forever Young
Tabbed by: Llama!
Standard tuning (EADG)

/ = Slide
~ = Let note ring
xhx = Hammer on
xbx = Bend

Intro - 0:01
G|--------------------
D|--------------------
A|--5~---5--5-5--5-5--
E|--------------------


Verse - 0:16
G|------------------------------0------------------
D|--/12--12--12-11--11--11-9--9---4-2---2----------
A|------------------------------------5-5-5-4h5-5--
E|-------------------------------------------------

G|---------------------------------------------2-2------
D|--/12-12-12-12--12-11--11-11-11--11-9--9-9-9-----2----
A|---------------------------------------------------0--
E|------------------------------------------------------

G|-------------------------
D|-------------------------
A|--/5--5-5--5--5--5-5--5--
E|-------------------------


Chorus - 0:57
G|----0-2---0-2---0-2-------------------4-2------------
D|--4-----4-----4---------------------------4----------
A|---------------------0-0-0-2-3--2-2-2-------2-2-2-2--
E|-----------------------------------------------------

G|--------------------------------------
D|--------------------------------------
A|--0-4-5--5-----0-0--/5-5-5-5-5-5-5-5--
E|-----------2-3------------------------

Repeat Verse - 1:26

Chorus - 2:05
G|-----------------------------2-----------------4-2-4--/4-/4--
D|--4-5-6-7--4-5-6-7--4-5-6-7----2-----------------------------
A|---------------------------------0--0-2-4--2-2---------------
E|-------------------------------------------------------------

G|--------------------------------------------------
D|-----------------------4-5--7-7-7-----------------
A|--2--2-2--2-3-4-5--5-5-------------0-0-5-5-5-5-5--
E|--------------------------------------------------


Verse - 2:34? (Can\'t read me own writing...)
G|-------------------------------------------------------
D|----------7--/12-----------12-11-11-11-------9-11-9-9--
A|--7b9--9----------------12--------------9-12-----------
E|------------------12h14--------------------------------

G|-----------------------------2----------
D|--7------5-5-4-2-0-0--/12--4------------
A|----9-10-----------------------5-5-5-5--
E|----------------------------------------


Verse - 2:53
G|-----------------------------------------------------
D|----7--/12-12-12------12-11-11-11------11-9-9-7-5-5--
A|--9--------------9-12-------------9-12---------------
E|-----------------------------------------------------

G|------2--------------------------
D|---------------------------------
A|--0-0---0--/5--55--5--5--5-5--5--
E|---------------------------------


Chorus - 3:15
G|--------0-2-------0-2-------0-2------2---2-3-4-------------------------------
D|--4-2-4-----4-2-4-----4-2-4------------4-------------------------------------
A|---------------------------------0-0------------2-2-0-2-2-0-2--0-2-4--5-5-5--
E|-----------------------------------------------------------------------------

G|-------------------------------
D|-------------------------------
A|----0-0--0-2-4-5--5-5--5--5-5--
E|--2----------------------------


3:42
G|----2-4-2--/7--7-7-7------------------------------------------
D|--4------------------------11-12-11-11-11--11----11--9-9-9-9--
A|----------------------9-12--------------------12--------------
E|--------------------------------------------------------------

G|-------------------------------------------7--6-6-6-6--4-4-4-4--2-2-2-2--
D|--9---5-4-2-0------------------12-12-12--7-------------------------------
A|----9------------0-2-5-5--9-12-------------------------------------------
E|---------------2---------------------------------------------------------

G|------------------------------------
D|--2---------------------------------
A|----0--5-5-5-0h5-5-5-0-2-4-5-5-0-5--
E|------------------------------------


4:24
G|--------------------------------------------4-----4---------------
D|------------------------------------------------------------------
A|--0-0-0-------0-0-----0-0-0-0--0-2-4--2-2-2---2-2---2-0-2-4--5-5--
E|--------0-2-3-----0-3---------------------------------------------

G|----------------------------
D|----------------------------
A|------0-0--2-4--5-5-5-5-5~--
E|--2-3-----------------------

Et fini.


Bob Dylan albums
2003 Masked and Anonymous
2001 Love and Theft
1997 Time Out of Mind
1993 World Gone Wrong
1992 Good as I Been to You
1990 Under the Red Sky
1989 Oh Mercy
1988 Down in the Groove
1986 Knocked Out Loaded
1985 Empire Burlesque
1983 Infidels
1981 Shot of Love
1980 Saved
1979 Slow Train Coming
1978 Street Legal
1976 Desire
1975 The Basement Tapes
1975 Blood on the Tracks
1974 Planet Waves
1973 Dylan
1970 New Morning
1970 Self Portrait
1969 Nashville Skyline
1967 John Wesley Harding
1966 Blonde on Blonde
1965 Highway 61 Revisited
1965 Bringing It All Back Home
1964 Another Side of Bob Dylan
1964 The Times They Are A-Changin'
1963 The Freewheelin' Bob Dylan
1962 Bob Dylan
Planet Waves tabs
02Going, Going, Gone tabbass tab
04Hazel tabbass tab
05Something There Is About You tabbass tab
06Forever Young tabbass tab
08Dirge tabbass tab
11Wedding Song tabbass tab

 

1