Search tabs:
Browse artists: 0-9 | A | B | C | D | E | F | G | H | I | J | K | L | M | N | O | P | Q | R | S | T | U | V | W | X | Y | Z
/ Bob Marley / Exodus (1977) / One Love/People Get Ready bass tab

Bob Marley and the Wailers
“One Love/ People Get Ready”

by: Zack Nelson

In the order as played in the song
Chorus:

3 TimeG ----------------------------------------------------------------------------------
      D --------------------------------------------------------------------------------8-
      A --------8------------------------8------------8----------6---------------8--------
      E --6-6------6-6-----------8--10-------8--10---------6--8-----8--6------8-----8-----

Then:

G---------------------------------------------
D---------------------------------------------
A-6-6-6--5-----------------8------------------
E--------------8--6----8------8--6------------

Verse: played twice

G---------------------------------------------------------
D---------------------------------------------------------
A--------5---8--10-------------5h6-6-6--6-6---------------
E--6-6-----------------6--------------------------6-------

G---------------------------------------------------------
D---------------------------------------------------------
A---------5--8--10----------------------------8h10--------
E--6-6----------------6----------------6h8-8--------6-----

Then the chorus 3 times and the riff after the chorus once, then the verse twice

Then:

2 TimeG ------------------------------------------------------------------------------
      D ------------------------------------------------------------------------------
      A -8-------8-----------8--8-8---8---8-8-------------6---------------8-----------
      E ---6-6-----6-6-------------------------------6--8-----8--6-----8-----8--6-----

G---------------------------------------------------------
D---------------------------------------------------------
A--6-6--6-6-6-6----------------------8--------------------
E------------------------6--------8---------8---6---------


Bob Marley albums
2001 One Love -The Very Best of Bob Marley & the Wailers
1983 Confrontation
1981 Chances Are
1980 Uprising
1979 Survival
1978 Kaya
1977 Exodus
1976 Rastaman Vibration
1974 Natty Dread
1973 Burnin'
1973 Catch a Fire
1970 Soul Rebels
1969 Soul Shakedown
Exodus tabs
01Natural Mystic tabbass tab
04The Heathen tabbass tab
05Exodus tabbass tab
06Jamming tabbass tab
07Waiting in Vain tabbass tab
08Turn Your Lights Down Low tabbass tab
09Three Little Birds tabbass tab
10One Love/People Get Ready tabbass tab

 

1