Search tabs:
Browse artists: 0-9 | A | B | C | D | E | F | G | H | I | J | K | L | M | N | O | P | Q | R | S | T | U | V | W | X | Y | Z
/ Bob Marley / Natty Dread (1974) / Lively Up Yourself bass tab

Intro
G|------------------------------|
D|------------------------------|
A|----2---------2-5---------5-4-|
E|-3---------3------------3-----|

Verse
G|----------------------------------------|
D|----------------------------------------|
A|---2-3-5-5----5-3-2---------------2-3-5-|
E|-3---------------------3--------3-------|

Chorus
G|------------------------------|
D|------------------------------|
A|----2---------2-5---------5-4-|
E|-3---------3------------3-----|


Bob Marley albums
2001 One Love -The Very Best of Bob Marley & the Wailers
1983 Confrontation
1981 Chances Are
1980 Uprising
1979 Survival
1978 Kaya
1977 Exodus
1976 Rastaman Vibration
1974 Natty Dread
1973 Burnin'
1973 Catch a Fire
1970 Soul Rebels
1969 Soul Shakedown
Natty Dread tabs
01Lively Up Yourself tabbass tab
02No Woman, No Cry tabbass tab
06Natty Dread tabbass tab
07Bend Down Low tabbass tab
08Talkin' Blues tabbass tab

 

1