Search tabs:
Browse artists: 0-9 | A | B | C | D | E | F | G | H | I | J | K | L | M | N | O | P | Q | R | S | T | U | V | W | X | Y | Z
/ Bob Seger / Ramblin' Gamblin' Man (1968) / 2 + 2 = ? bass tab

standard tuning


---320-------------------------------------
--0----------------------------------------
-0-----------------------------------------
-------------------------------------------
play until the drums come in then play this

--310---------------------------------------
-0---0321-----------------------------------
--------------------------------------------
--------------------------------------------
then when he first says two plus two
is on my mind start playing this
-----333-222---------------------------------
--000--------321-----------------------------
---------------------------------------------
---------------------------------------------
then the secound time he says two plus
two is on my mind  play this through the
rest of the song
----22332200----------------------------------
--00--------332211----------------------------
----------------------------------------------
----------------------------------------------
sounds right, its easy,please rate


Bob Seger albums
1991 The Fire Inside
1986 Like a Rock
1982 The Distance
1980 Against the Wind
1978 Stranger in Town
1976 Night Moves
1973 Back in '72
1968 Ramblin' Gamblin' Man
Ramblin' Gamblin' Man tabs
092 + 2 = ? tabbass tab

 

1