Search tabs:
Browse artists: 0-9 | A | B | C | D | E | F | G | H | I | J | K | L | M | N | O | P | Q | R | S | T | U | V | W | X | Y | Z
/ Burzum / Burzum/Aske (1992) / Feeble Screams from Forests Unknown bass tab

Band: Burzum
Song: Feeble Screams From Forests Unknown
Album: Burzum

Transcribed by: Andrew Collyer
Contact: the_hauntedcrown@hotmail.com

Copyright (c) Deathlike Silence Productions, 1992

TUNING: E A D G

. - palm mute / - slide up to
\ - slide down to ~ - vibrato
h - hammer on p - pull off
, - slight palm mute () - ghost note, sustained note
" - tremolo note <> - Trill
n " natural harmonic

Suffixes for bend
f - full bend h - half bend
ph - pinched harmonic q - quarter bend
t - tap bend * - see comment
^ - Hold bend r - release bend
x " Stuccatto ~ - vibrato bend

Riff 1
------------------------------------------------
---3-5”------3-5”--2”------3-5”------3-5”--2”---
-3---------3-------------3---------3------------
------------------------------------------------

Riff 2 (play twice)
-----------------------------------------------------------------
-----------------------------------------------------------------
-5-5-5-6-5-5-3-2-5-8-7-7-6-6-3-2-5-5-5-6-5-5-3-2-5-8-7-7-6-6-6-6-
-----------------------------------------------------------------

Riff 3 (play 4 times)
----------------
----------------
---------3”-----
-3”--6”---------

Riff 2 x 1
Riff 1 x 1

Riff 4 (play 4 times) (guitars only on first time)
-----------------------------------------------------------------------------
-----------------------------------------------------------------------------
-----------------------------------------------------------------------------
-6--6-6-6-6-7-8--6--6-6-6-6-7-8--6--6-6-6-6-6-5--4--4-4-4-4-5-6--4--4-4-4-4--

-----
-----
-----
-5-6-


Riff 5 (play 4 times)
------------------------------------------------------------------
------------------------------------------------------------------
-6--6-6-6-6---6-6/8--8-8-8-8--7-7--7-7-7-7--7-7--3--3-3-3-3--3-3--
------------6-----------------------------------------------------

Riff 4 x ½

Guitar only part

Riff 6 (play 4 times)
------------------------------------------------
------------------------------------------------
-3---3-3-3--3-2--2-2-2---2-2--2-2-2--2-2--2-2-2-
------------------------------------------------

Riff 7 (play 4 times)
-------------------------------------------------------------------------
-------------------------------------------------------------------------
-------------------------------------------------------------------------
-4--4-4-4-4--4-3--3-3-3--3-3--3-3-3--3-3--3-3-3--3-3--3-3-3--1--1-1-1--1-

Riff 8 (play 4 times)
--------------
--------------
--------------
-1----4----3--

Guitar only

Riff 9 (play 8 times)
--------------
--------------
-2”-----------
--------2”----

Guitar only part

Riff 9 (play until end)
---------------------------------
---------------------------------
-----------------9-9-9-9-9-9-9-9-
-6-6-6-6-6-6-6-6-----------------

END
-------
------- (hold)
-------
-6-----


Burzum albums
1996 Filosofem
1994 Hvis Lyset Tar Oss
1993 Det Som Engang Var
1992 Burzum/Aske
Burzum/Aske tabs
01Feeble Screams from Forests Unknown tabbass tab
03Spell of Destruction tabbass tab
05War tabbass tab
06Crying Orc tabbass tab
07My Journey to the Stars tabbass tab
09Stemmen Fra Gaarnet tabbass tab

 

1