Search tabs:
Browse artists: 0-9 | A | B | C | D | E | F | G | H | I | J | K | L | M | N | O | P | Q | R | S | T | U | V | W | X | Y | Z
/ Burzum / Burzum/Aske (1992) / Spell of Destruction bass tab

G||------|------|------|------|------|------|------|------|------|------|------|
D||------|------|------|------|------|------|------|------|------|------|------|
A||------|------|------|------|------|------|------|------|------|------|------|
E||------|------|------|------|------|------|------|------|------|------|------|



------|------|------|------|------|------|------|------|------|------|------|
------|------|------|------|------|------|------|------|------|------|------|
------|------|------|------|------|------|------|------|------|------|------|
------|------|------|------|------|------|------|------|------|------|------|



------|------|------||--------------------|-------------------|
------|------|------||*-------------------|-------------------|
------|------|------||*--3/---------------|--7/---------------|
------|------|------||--------------------|-------------------|



-------------------|-------------------|-------------------|-------------------|
-------------------|-------------------|-------------------|-------------------|
--3/---------------|--7/---------------|--3/---------------|--7/---------------|
-------------------|-------------------|-------------------|-------------------|


                                        2x
-------------------|--------------------||------|------|------|------|------|
-------------------|-------------------*||------|------|------|------|------|
--3/---------------|--7/---------------*||------|------|------|------|------|
-------------------|--------------------||------|------|------|------|------|



------|------|------||--------------------|-------------------|
------|------|------||*-------------------|-------------------|
------|------|------||*--3/---------------|--7/---------------|
------|------|------||--------------------|-------------------|


                                        5x
-------------------|--------------------||-------|------|------|-------||------|
-------------------|-------------------*||*------|------|------|------*||------|
--3/---------------|--7/---------------*||*------|------|------|------*||------|
-------------------|--------------------||-------|------|------|-------||------|



------|------|------|------|------|------|------|------|------|------|------|
------|------|------|------|------|------|------|------|------|------|------|
------|------|------|------|------|------|------|------|------|------|------|
------|------|------|------|------|------|------|------|------|------|------|


                                                          5x
------|------|------|------||-------|------|------|-------||------|------|
------|------|------|------||*------|------|------|------*||------|------|
------|------|------|------||*------|------|------|------*||------|------|
------|------|------|------||-------|------|------|-------||------|------|



------|------|------|------|------|------||--------------------|
------|------|------|------|------|------||*--3----------------|
------|------|------|------|------|------||*-------------------|
------|------|------|------|------|------||--------------------|



-------------------|-------------------|-------------------|-------------------|
--3----------------|--3----------------|--3/---------------|--4----------------|
-------------------|-------------------|-------------------|-------------------|
-------------------|-------------------|-------------------|-------------------|



-------------------|-------------------|--------------------||
--4----------------|--4----------------|--4----------------*||
-------------------|-------------------|-------------------*||
-------------------|-------------------|--------------------||



-------------------|------------------||
--3----------------|------------------||
-------------------|------------------||
-------------------|------------------||


Burzum albums
1996 Filosofem
1994 Hvis Lyset Tar Oss
1993 Det Som Engang Var
1992 Burzum/Aske
Burzum/Aske tabs
01Feeble Screams from Forests Unknown tabbass tab
03Spell of Destruction tabbass tab
05War tabbass tab
06Crying Orc tabbass tab
07My Journey to the Stars tabbass tab
09Stemmen Fra Gaarnet tabbass tab

 

1