Search tabs:
Browse artists: 0-9 | A | B | C | D | E | F | G | H | I | J | K | L | M | N | O | P | Q | R | S | T | U | V | W | X | Y | Z
/ Burzum / Burzum/Aske (1992) / War? bass tab

G||------|------|------|------|------|------|------|------|
D||------|------|------|------|------|------|------|------|
A||------|------|------|------|------|------|------|------|
E||------|------|------|------|------|------|------|------|



|---------------------------|-------------------------|
|*--------------------------|-------------------------|
|*--------------------------|-------------------------|
|---0--7--8--0--5--7--0--3--|--5--0--2--3--0--3--5----|



--------------------------|-------------------------|--------------------------|
--------------------------|-------------------------|--------------------------|
--------------------------|-------------------------|--------------------------|
--0--7--8--0--5--7--0--3--|--5--0--2--3--5--3--2----|--0--7--8--0--5--7--0--3--|



-------------------------|--------------------------|-------------------------||
-------------------------|--------------------------|------------------------*||
-------------------------|--------------------------|------------------------*||
--5--0--2--3--0--3--5----|--0--7--8--0--5--7--0--3--|--5--0--2--3--2----3-----||



---------------------------|-----------------------------|
*--------------------------|-----------------------------|
*--------------------------|-----------------------------|
---0--7--8--0--7--8--0--8--|--10--0--10--12--0--8--10----|



--------------------------|--------------------------||
--------------------------|-------------------------*||
--------------------------|-------------------------*||
--0--7--8--0--7--8--0--5--|--7--0--3--5--0--5--7-----||



---------------------------|-------------------------|
*--------------------------|-------------------------|
*--------------------------|-------------------------|
---0--7--8--0--5--7--0--3--|--5--0--2--3--0--3--5----|



--------------------------|-------------------------|--------------------------|
--------------------------|-------------------------|--------------------------|
--------------------------|-------------------------|--------------------------|
--0--7--8--0--5--7--0--3--|--5--0--2--3--5--3--2----|--0--7--8--0--5--7--0--3--|



-------------------------|--------------------------|-------------------------||
-------------------------|--------------------------|------------------------*||
-------------------------|--------------------------|------------------------*||
--5--0--2--3--0--3--5----|--0--7--8--0--5--7--0--3--|--5--0--2--3--2----3-----||



---------------------------|-----------------------------|
*--------------------------|-----------------------------|
*--------------------------|-----------------------------|
---0--7--8--0--7--8--0--8--|--10--0--10--12--0--8--10----|



--------------------------|--------------------------||
--------------------------|-------------------------*||
--------------------------|-------------------------*||
--0--7--8--0--7--8--0--5--|--7--0--3--5--0--5--7-----||



----------------------------------|----------------------------|------|------|
----------------------------------|----------------------------|------|------|
----------------------------------|------------------7/---1----|------|------|
--0-0-0-0-0-0-0-0-0-0-0-0-0-0-0-0-|--0-0-0-0-0-0-0-0-----------|------|------|



------|------|------|------|------|------||---------------------------|
------|------|------|------|------|------||*--------------------------|
------|------|------|------|------|------||*--------------------------|
------|------|------|------|------|------||---0--7--8--0--5--7--0--3--|



-------------------------|--------------------------|-------------------------|
-------------------------|--------------------------|-------------------------|
-------------------------|--------------------------|-------------------------|
--5--0--2--3--0--3--5----|--0--7--8--0--5--7--0--3--|--5--0--2--3--5--3--2----|



--------------------------|-------------------------|--------------------------|
--------------------------|-------------------------|--------------------------|
--------------------------|-------------------------|--------------------------|
--0--7--8--0--5--7--0--3--|--5--0--2--3--0--3--5----|--0--7--8--0--5--7--0--3--|



-------------------------||---------------------------|
------------------------*||*--------------------------|
------------------------*||*--------------------------|
--5--0--2--3--2----3-----||---0--7--8--0--7--8--0--8--|



-----------------------------|--------------------------|
-----------------------------|--------------------------|
-----------------------------|--------------------------|
--10--0--10--12--0--8--10----|--0--7--8--0--7--8--0--5--|



--------------------------||-------|------|------||
-------------------------*||-------|------|------||
-------------------------*||-------|------|------||
--7--0--3--5--0--5--7-----||--0----|------|------||


Burzum albums
1996 Filosofem
1994 Hvis Lyset Tar Oss
1993 Det Som Engang Var
1992 Burzum/Aske
Burzum/Aske tabs
01Feeble Screams from Forests Unknown tabbass tab
03Spell of Destruction tabbass tab
05War tabbass tab
06Crying Orc tabbass tab
07My Journey to the Stars tabbass tab
09Stemmen Fra Gaarnet tabbass tab

 

1