Search tabs:
Browse artists: 0-9 | A | B | C | D | E | F | G | H | I | J | K | L | M | N | O | P | Q | R | S | T | U | V | W | X | Y | Z
/ Burzum / Filosofem (1996) / Dunkelheit bass tab

G||------------------|------------------||--------------------|
D||------------------|------------------||*-------------------|
A||------------------|------------------||*-------------------|
E||------------------|------------------||---2----------------|



--------------------|-------------------|---------------------||
--------------------|-------------------|--------------------*||
--------------------|-------------------|--------------------*||
--3--------0--------|--2----------------|--3--------0---------||



--------------------|--------------------|-------------------|
*-------------------|--------------------|-------------------|
*-------------------|--------------------|-------------------|
---2----------------|--3--------0--------|--2----------------|



---------------------||-------------------|--------------------|
--------------------*||-------------------|--------------------|
--------------------*||-------------------|--------------------|
--3--------0---------||--2----------------|--3--------0--------|



-------------------|--------------------|-------------------|
-------------------|--------------------|-------------------|
-------------------|--------------------|-------------------|
--2----------------|--3--------0--------|--2----------------|



--------------------|-------------------|--------------------|
--------------------|-------------------|--------------------|
--------------------|-------------------|--------------------|
--3--------0--------|--2----------------|--3--------0--------|



--------------------|-------------------|--------------------|
--------------------|-------------------|--------------------|
--------------------|-------------------|--------------------|
--3--------0--------|--2----------------|--3--------0--------|



-------------------|--------------------|-------------------|
-------------------|--------------------|-------------------|
-------------------|--------------------|-------------------|
--2----------------|--3--------0--------|--2----------------|



--------------------|-------------------||---------------------|
--------------------|-------------------||*--------------------|
--------------------|-------------------||*--------------------|
--3--------0--------|--2----------------||---3--------0--------|



-------------------|--------------------|-------------------|
-------------------|--------------------|-------------------|
-------------------|--------------------|-------------------|
--2----------------|--3--------0--------|--2----------------|



--------------------|-------------------|--------------------|
--------------------|-------------------|--------------------|
--------------------|-------------------|--------------------|
--3--------0--------|--2----------------|--3--------0--------|



--------------------||---------------------|-------------------|
-------------------*||*--------------------|-------------------|
-------------------*||*--------------------|-------------------|
--2-----------------||---3--------0--------|--2----------------|



--------------------|--------------------||---------------------|
--------------------|-------------------*||*--------------------|
--------------------|-------------------*||*--------------------|
--3--------0--------|--2-----------------||---3--------0--------|



-------------------|--------------------|-------------------|
-------------------|--------------------|-------------------|
-------------------|--------------------|-------------------|
--2----------------|--3--------0--------|--2----------------|



--------------------|-------------------|--------------------|
--------------------|-------------------|--------------------|
--------------------|-------------------|--------------------|
--3--------0--------|--2----------------|--3--------0--------|



--------------------||---------------------|-------------------|
-------------------*||*--------------------|-------------------|
-------------------*||*--------------------|-------------------|
--2-----------------||---3--------0--------|--2----------------|



--------------------|--------------------||------------------|
--------------------|-------------------*||------------------|
--------------------|-------------------*||------------------|
--3--------0--------|--2-----------------||------------------|



------------------|------------------|------------------||---------------------|
------------------|------------------|------------------||*--------------------|
------------------|------------------|------------------||*--------------------|
------------------|------------------|------------------||---3--------0--------|



-------------------|--------------------|--------------------||
-------------------|--------------------|-------------------*||
-------------------|--------------------|-------------------*||
--2----------------|--3--------0--------|--2-----------------||



---------------------|-------------------|--------------------|
*--------------------|-------------------|--------------------|
*--------------------|-------------------|--------------------|
---3--------0--------|--2----------------|--3--------0--------|



--------------------||---------------------|-------------------|
-------------------*||*--------------------|-------------------|
-------------------*||*--------------------|-------------------|
--2-----------------||---3--------0--------|--2----------------|



--------------------|--------------------||---------------------|
--------------------|-------------------*||*--------------------|
--------------------|-------------------*||*--------------------|
--3--------0--------|--2-----------------||---3--------0--------|



-------------------|--------------------|--------------------||
-------------------|--------------------|-------------------*||
-------------------|--------------------|-------------------*||
--2----------------|--3--------0--------|--2-----------------||



-------------------|--------------------|-------------------|
-------------------|--------------------|-------------------|
-------------------|--------------------|-------------------|
--2----------------|--3--------0--------|--2----------------|



--------------------|-------------------|--------------------|
--------------------|-------------------|--------------------|
--------------------|-------------------|--------------------|
--3--------0--------|--2----------------|--3--------0--------|



-------------------|--------------------||---------------------|
-------------------|--------------------||*--------------------|
-------------------|--------------------||*--------------------|
--2----------------|--3--------0--------||---3--------0--------|



-------------------|--------------------|--------------------||
-------------------|--------------------|-------------------*||
-------------------|--------------------|-------------------*||
--2----------------|--3--------0--------|--2-----------------||



-------------------|--------------------|-------------------|
-------------------|--------------------|-------------------|
-------------------|--------------------|-------------------|
--2----------------|--3--------0--------|--2----------------|



--------------------|-------------------|--------------------|
--------------------|-------------------|--------------------|
--------------------|-------------------|--------------------|
--3--------0--------|--2----------------|--3--------0--------|



-------------------|--------------------||---------------------|
-------------------|--------------------||*--------------------|
-------------------|--------------------||*--------------------|
--2----------------|--3--------0--------||---3--------0--------|



-------------------|--------------------|--------------------||
-------------------|--------------------|-------------------*||
-------------------|--------------------|-------------------*||
--2----------------|--3--------0--------|--2-----------------||



---------------------|-------------------|--------------------|
*--------------------|-------------------|--------------------|
*--------------------|-------------------|--------------------|
---3--------0--------|--2----------------|--3--------0--------|


                    9x
--------------------||------------------|------------------|------------------|
-------------------*||------------------|------------------|------------------|
-------------------*||------------------|------------------|------------------|
--2-----------------||------------------|------------------|------------------|



------------------|------------------|------------------|------------------|
------------------|------------------|------------------|------------------|
------------------|------------------|------------------|------------------|
------------------|------------------|------------------|------------------|



------------------|------------------||
------------------|------------------||
------------------|------------------||
------------------|------------------||


Burzum albums
1996 Filosofem
1994 Hvis Lyset Tar Oss
1993 Det Som Engang Var
1992 Burzum/Aske
Filosofem tabs
01Dunkelheit tabbass tab
02Jesus Dod tabbass tab

 

1