Search tabs:
Browse artists: 0-9 | A | B | C | D | E | F | G | H | I | J | K | L | M | N | O | P | Q | R | S | T | U | V | W | X | Y | Z
/ Cake / Pressure Chief (2004) / Take It All Away bass tab

(Intro)
---------------- ----------------
2-2-22--2-2---2- ----------------
-------------2-- 2-2-22--2-2---2-
---------------- -------------2--

(Verse)
---------------- ---------------- ---------------- --------
---------------- ---------------- ---------------- --------
7-7-77---------- 5-5-55---------- 3-3-33---------- ----66--
--------8-8-88-- --------7-7-77-- --------5-5-55-- 7-7----- x3

---------------- ---------------- ---------------- --------
---------------- ---------------- ---------------- --------
7-7-77---------- 5-5-55---------- 3-3-33---------- --------
--------8-8-88-- --------7-7-77-- --------5------- --------

Intro x2
Verse
Intro x1
Verse
Intro x2
Verse
Intro x4

--------
222222--
--------
--------

----
CAKE - Take It All Away
Tabbed By dacamel / 15 Oct, 2004


Cake albums
2004 Pressure Chief
2001 Comfort Eagle
1998 Prolonging the Magic
1996 Fashion Nugget
1994 Motorcade of Generosity
Pressure Chief tabs
01Wheels tabbass tab
02No Phone tabbass tab
03Take It All Away tabbass tab
04Dime tabbass tab
05Carbon Monoxide tabbass tab
06The Guitar Man tabbass tab
07Waiting tabbass tab
09End of the Movie tabbass tab
10Palm of Your Hand tabbass tab

 

1