Search tabs:
Browse artists: 0-9 | A | B | C | D | E | F | G | H | I | J | K | L | M | N | O | P | Q | R | S | T | U | V | W | X | Y | Z
/ Children of Bodom / Follow the Reaper (2001) / Everytime I Die bass tab

D tuning (D,G,C,F)

Intro:
|-------------------------------------------------------------|
|*-----------------------------------------------------------*|
|*-----------------------------------------------------------*|
|-0-00000000-00-0-0-00000000-00-0-0-00000000-00-0-0-00000000-0|
 
Riff 1:
|-------------------------------------------------------------|
|-------------------------------------------------------------|
|---------------------------------5---------------------------|
|-0-00000000-00-0-0-00000000-00-0-----------------------------|
  
|----------------------------9---9-11-12-11-9----9------------|
|------------------------------9--------------12--------------|
|-------------------------------------------------------------|
|-0-00000000-00-0-0-00000000----------------------------------|
  
|-------------------------------------------------------------|
|-------------------------------------------------------------|
|---------------------------------5---------------------------|
|-0-00000000-00-0-0-00000000-00-0-----------------------------|
 
|---------------------|
|---------------------|
|---------------------|
|-0-00000000-00-0-0---|
  
|-------------------------------------------------------------|
|-------------------------------------------------------------|
|-0-----------3-----------0-----------5-----------------------|
|-------------------------------------------------------------|


Riff 2:
|-9-----------------------------------------------------------|
|*--9-9-9-7----------4-2-------------------------------------*|
|*----------9-10-7-2-----5---333-555-------------------------*|
|-------------------------------------------------------------|
	
|-9--------------------9----|---------------------------------|
|*--------------10-9--------|--------------------------------*|
|*--------------------------|-333-555------------------------*|
|---------------------------|---------------------------------|
			      ... ...

|-------------------------------------------------------------|
|--Keyboard---------------------------------------------------|
|-------------------------------2---2-2-2---2---3-3-3---5-5-5-|
|-------------------------------------------------------------|
				  

Verse:
|-------------------------------------------------------------|
|*------------------------------------------------------------|
|*------------------------------------------------------------|
|-0---0-0---0---0---000000---0---0-0---0---0---00---3---------|
      
|-------------------------------------------------------------|
|------------------------------------------------------------*|
|------------------------5---2---2-2-2---2---3-3-3---5-5-5---*|
|-0---0-0---0---0---00----------------------------------------|
    
|-------------------------------------------------------------|
|-------------------------------------------------------------|
|-------------------------------------------------------------|
|-0---0-0---0---0---000000---0---0-0---0---0---00---3---------|
     
|-------------------------------------------------------------|
|-------------------------------------------------------------|
|------------------------5------------------------------------|
|-0---0-0---0---0---00-------1---1-1---1---1-1---3------------|
      

|-14----------------------------------------------------------|
|*---14-14-14-12------------9-7---------------------------3x-*|
|*---------------14-15-12-7-------10-----8-8-8---101010------*|
|-------------------------------------------------------------|
			
|-------------------------------------------------------------|
|-------------------------------------------------------------|
|-5-----------8-----------5-----------10----------12------10--|
|-------------------------------------------------------------|

Chorus:
|-------------------------------------------------------------|
|*-----------------------------------------------------------*|
|*--------------------------------------------5--------------*|
|-5---------0--------5-5-5---3---5---5---55-----3-------------|


|-------------------------------------------------------------|
|-------------------------------------------------------------|
|-------------------------------0-----------------------------|
|-5---------0--------1--------------------1-------------------|


|-------------------------------------------------------------|
|-------------------------------------------------------------|
|---------------------------------5---------------------------|
|-0-00000000-00-0-0-00000000-00-0-----------------------------|
  
|-------------------------------------------------------------|
|-------------------------------------------------------------|
|---------------------------------5-5-5-5-3-3-5-5-------------|
|-0-00000000-00-0-0-00000000-00-0-----------------------------|
  

Play verse 1 time

|-------------------------------------------------------------|
|-------------------------------------------------------------|
|-----------------------5--------------------3----------------|
|-00000----00000----0--------00000---00000--------------------|

|-------------------------------------------------------------|
|-------------------------------------------------------------|
|--0---------------3-------------0-------------5--------------|
|-------------------------------------------------------------|


|----------------------------------------------------------------|
|*-------------------------------------------2-4/7-5-4-9-7-5-5-4*|
|*7---7-7-9-9--1010---3-3333-3--77775555------------------------*|
|--0000----------------------------------------------------------|
   ....   .... ....     ....    ........

|----------------------------------------------------------------|
|*---------------------------------------4---2-4/7-5-4-9-7-5-5-4*|
|*7---7-7-9-9--1010---3-3333-3-3-3-3-2-2------------------------*|
|--0000----------------------------------------------------------|
   


SOLO:
|-------------------------------------------------------------|
|-------------------------------------------------------------|
|-0----------------------3------------------------------------|
|-------------------3-------------1---------0-----------------|



|-----------------------------------------------|
|-----------------------------------------------|
|-----------------------------------------------|
|-3-----------------------0---------------------|



|-------------------------------------------------------------|
|-------------------------------------------------------------|
|-------------------------------------------------------------|
|-1------------------3----------------------------------------|



|-------------------------------------------------------------|
|-------------------------------------------------------------|
|-0----------------3------------------------------------------|
|---------3--------------------1------------0-----------------|


|-------------------------------------------------------------|
|-------------------------------------------------------------|
|-------------------------------------------------------------|
|-3-----------------------------------------------------------|



|-------------------------------------------------------------|
|-------------------------------------------------------------|
|-------------------------------------------------------------|
|-0-----------------------------------------------------------|



|-------------------------------------------------------------|
|-------------------------------------------------------------|
|-------------------------------------------------------------|
|-1-----------------------------------------------------------|




|-------------------------------------------------------------|
|-------------------------------------------------------------|
|-------------------------------------------------------------|
|-3-----------------------------------------------------------|


|-------------------------------------------------------------|
|-keyboard solo, guitar 1&2 plays solo riff---------------|
|-------------------------------------------------------------|
|--------------------------------------------3-3-3-3-1-1-3-3--|
                                           
|-play chorus 1 time ----------------------|------------------|
|------------------------------------------|------------------|
|------------------------------------------|------------------|
|------------------------------------------|-5-5-5-5-1-1-3-3--|

 
 
 

Copyright 1999-2004 Mxtabs | Contact | Advertise | FAQ  


Children of Bodom albums
2005 Trashed, Lost & Strung Out (EP)
2003 Hate Crew Deathroll
2001 Tokyo Warhearts (Live)
2001 Follow the Reaper
1999 Hatebreeder
1998 Something Wild
Follow the Reaper tabs
01Follow the Reaper tabbass tab
02Bodom After Midnight tabbass tab
03Children of Decadence tabbass tab
04Everytime I Die tabbass tab
05Mask of Sanity tabbass tab
06Taste of My Scythe tabbass tab
07Hate Me! tabbass tab
08Northern Comfort tabbass tab
09Kissing the Shadows tabbass tab
10Hellion tabbass tab

 

1