Search tabs:
Browse artists: 0-9 | A | B | C | D | E | F | G | H | I | J | K | L | M | N | O | P | Q | R | S | T | U | V | W | X | Y | Z
/ Children of Bodom / Follow the Reaper (2001) / Hellion bass tab

HELLION (Bassline)
                        As recorded by Children Of Bodom
                     (From the 2001 Album FOLLOW THE REAPER)

Words and Music by W.A.S.P.
Arranged by Children Of Bodom
Transcribed by Craig Cameron

Gtr I (D G C F) - 'Untitled'
Gtr II (D G C F) - 'Untitled'

 Intro (0.09)
  Q=128
 4/4
  Gtr I
  Wx9          E S E S E S S  S S S S  S S   E S E S E S E S E E
|------------|-----------------------------|----------------------|
|------------|------------------7-9-7------|-0-0-0-0-0-0-0-0-0-0--|
|------------|-7-7-7-7-7-7-9-10-------10-9-|----------------------|
|------------|-----------------------------|----------------------|


  E S E S E S S S S S S S S   E S E S E S E S E E
|-----------2-0-------------|---------------------|
|---------------4-2-0-----0-|---------------------|
|-3-3-3-3-3-----------0-3---|-7-7-7-7-7-7-7-7-7-7-|
|---------------------------|---------------------|


  E S E S E S S  S S S S  S S   E S E S E S E S E E
|------------------7-9-7------|----------------------|
|-----------7-9-10-------10-9-|-0-0-0-0-0-0-0-0-0-0--|
|-7-7-7-7-7-------------------|----------------------|
|-----------------------------|----------------------|


  E S E S E S S S S S S S S   S E E E S S E E S E
|-----------2-0-------------|---------------------|
|---------------4-2-0-------|---------------------|
|-3-3-3-3-3-----------3-0---|---------------------|
|-------------------------3-|-0-0-0-0-0-0-0-0-0-0-|


   Verse
    Gtr II
    E S S S S S S S S S S S E.   E S S S S S S S S S S S E.
||-----------------------------|-----------------------------|
||o-2-2-2-2-2-2-2-2-2-2-2-2p0--|-2-2-2-2-2-2-2-2-2-2-2-2p0---|
||o----------------------------|-----------------------------|
||-----------------------------|-----------------------------|


  E S S S S S S S S S S S S S S   E E E E E E E S S
|-------------------------------|--------------------||
|-2-2-2-2-2-2-2-2-2-2-2-2-2-2-2-|-0-0-----0-0-0-0-0-o||
|-------------------------------|-----3-3-----------o||
|-------------------------------|--------------------||


 Pre-Chorus
  W          H    e Q.
|----------|-------------|
|----------|-------------|
|-3--------|-5----5------|
|----------|-------------|


   Chorus
    E S E S E S E S E E    E S E S E S E S E E   E S E S E S E S E E
||-----------------------|---------------------|---------------------|
||o----------------------|---------------------|-0-0-0-0-0-0-0-0-0-0-|
||o-7-7-7-7-7-7-7-7-7-7\-|-3-3-3-3-3-3-3-3-3-3-|---------------------|
||-----------------------|---------------------|---------------------|


  1.                               2.
  E S E S E S  S S S  S S  S S     S  S S  S S  S S  S S S  S S  S S  S S
|-------------------------------||----------------------------------------|
|----------------7-9-10-9------o||-7---------7---------9-7------10-9------|
|-7-7-7-7-7-9-10----------10-9-o||---10-9-10---10-9-10-----10-9------10-9-|
|-------------------------------||----------------------------------------|


   Verse 2
    E S S S S S S S S S S S E.   E S S S S S S S S S S S E.
||-----------------------------|-----------------------------|
||o-2-2-2-2-2-2-2-2-2-2-2-2p0--|-2-2-2-2-2-2-2-2-2-2-2-2p0---|
||o----------------------------|-----------------------------|
||-----------------------------|-----------------------------|


  E S S S S S S S S S S S S S S   E E E E E E E S S
|-------------------------------|--------------------||
|-2-2-2-2-2-2-2-2-2-2-2-2-2-2-2-|-0-0-----0-0-0-0-0-o||
|-------------------------------|-----3-3-----------o||
|-------------------------------|--------------------||


 Pre-Chorus 2
  H    +E  S E S E   Q.   S S e Q.
|------------------|-----------------|
|--------------0-2-|-0----4-2-0------|
|-3----(3)-3-3-----|-----------------|
|------------------|-----------------|


   + J - Chorus 2
    $
    E S E S E S E S E E    E S E S E S E S E E   E S E S E S E S E E
||-----------------------|---------------------|---------------------|
||o----------------------|---------------------|-0-0-0-0-0-0-0-0-0-0-|
||o-7-7-7-7-7-7-7-7-7-7\-|-3-3-3-3-3-3-3-3-3-3-|---------------------|
||-----------------------|---------------------|---------------------|


  1.                               2.
                                                               To Coda
  E S E S E S  S S S  S S  S S     S S S  S S S  S S S S  S S  S S  S S
|-------------------------------||--------------------------------------|
|----------------7-9-10-9------o||-0--------9-7------9-7------10-9------|
|-7-7-7-7-7-9-10----------10-9-o||---7-9-10-----10-9-----10-9------10-9-|
|-------------------------------||--------------------------------------|


 Interlude
  E E E E E E E E   E E E E E E E E   E E E E E E E E   E E E E E E E E
|-----------------|-----------------|-----------------|-----------------|
|-----------------|-----------------|-----------------|-----------------|
|-5-5-5-5-5-5-5-5-|-7-7-7-7-7-7-7-7-|-5-5-5-5-5-5-5-5-|-7-7-7-7-7-7-7-7-|
|-----------------|-----------------|-----------------|-----------------|


  E E E E E E E E   E E E E E E E E
|-----------------|-----------------|
|-----------------|-----------------|
|-3-3-3-3-3-3-3-3-|-----------------|
|-----------------|-0-0-0-0-0-0-0-0-|


  E E E E E E E E   E E E E S S  S S  S S  S S
|-----------------|----------------------------|
|-----------------|-0-0-0-0-9-7------10-9------|
|-3-3-3-3-3-3-3-3-|-------------10-9------10-9-|
|-----------------|----------------------------|


   Guitar Solo
    S S S S S S S S S S S S S S S S    S S S S S S S S S S S S S S S S
||-----------------------------------|----------------------------------|
||o----------------------------------|----------------------------------|
||o-7-7-7-7-7-7-7-7-7-7-7-7-7-7-7-7\-|-3-3-3-3-3-3-3-3-3-3-3-3-3-3-3-3--|
||-----------------------------------|----------------------------------|


  S S S S S S S S S S S S S S S S   S S S S S S S S S S  S S  S S  S S
|---------------------------------|-------------------------------------||
|-0-0-0-0-0-0-0-0-0-0-0-0-0-0-0-0-|-----------------9-7------10-9------o||
|---------------------------------|-7-7-7-7-7-7-7-7-----10-9------10-9-o||
|---------------------------------|-------------------------------------||


  E S E S E S E S E E    E S E S E S E S E E
|----------------------|---------------------|
|----------------------|---------------------|
|-7-7-7-7-7-7-7-7-7-7\-|-3-3-3-3-3-3-3-3-3-3-|
|----------------------|---------------------|


  E S E S E S E S E E   E. E. E E. E. E
|---------------------|-----------------|
|-0-0-0-0-0-0-0-0-0-0-|-----------------|
|---------------------|-7-------7-------|
|---------------------|----0--0----0--0-|


  S S S S S S S S S S S S S S S S    S S S S S S S S S S S S S S S S
|----------------------------------|---------------------------------|
|----------------------------------|---------------------------------|
|-7-7-7-7-7-7-7-7-7-7-7-7-7-7-7-7\-|-3-3-3-3-3-3-3-3-3-3-3-3-3-3-3-3-|
|----------------------------------|---------------------------------|


                                                           D.S. al Coda
  S S S S S S S S S S S S S S S S   S S S S S S S S S S  S S  S S  S S
|---------------------------------|----------------------------------------|
|-0-0-0-0-0-0-0-0-0-0-0-0-0-0-0-0-|-----------------9-7------10-9----------|
|---------------------------------|-7-7-7-7-7-7-7-7-----10-9------10-9-----|
|---------------------------------|----------------------------------------|


 Outro
  &
  S S S S S S S S S S  S  S S S  S S
|------------------------------------|
|-----------------9-7----10-9-7------|
|-7-7-7-7-7-7-7-7-----10--------10-9-|
|------------------------------------|


  |-3-|
  Q Q Q S S  S  S S S  S S    Q.   E H
|--------------------------|--------------*|
|-------9-7----10-9-7------|--------------*|
|-7-7-7-----10--------10-9-|-10\----------*|
|--------------------------|-------0------*|


Children of Bodom albums
2005 Trashed, Lost & Strung Out (EP)
2003 Hate Crew Deathroll
2001 Tokyo Warhearts (Live)
2001 Follow the Reaper
1999 Hatebreeder
1998 Something Wild
Follow the Reaper tabs
01Follow the Reaper tabbass tab
02Bodom After Midnight tabbass tab
03Children of Decadence tabbass tab
04Everytime I Die tabbass tab
05Mask of Sanity tabbass tab
06Taste of My Scythe tabbass tab
07Hate Me! tabbass tab
08Northern Comfort tabbass tab
09Kissing the Shadows tabbass tab
10Hellion tabbass tab

 

1