Search tabs:
Browse artists: 0-9 | A | B | C | D | E | F | G | H | I | J | K | L | M | N | O | P | Q | R | S | T | U | V | W | X | Y | Z
/ Children of Bodom / Follow the Reaper (2001) / Northern Comfort bass tab

NORTHERN COMFORT (Bassline)
                        As recorded by Children Of Bodom
                     (From the 2001 Album FOLLOW THE REAPER)

Words and Music by A. Laiho
Arranged by A. Laiho
Transcribed by Pete (Delirium_Veil)

Gtr I (E A D G) - 'Henkka T. Blacksmith'

 Intro
  Q=190
 4/4
  Gtr I
  W          W          W          W          H    E E E E
|----------|----------|----------|----------|---------------|
|----------|----------|----------|----------|---------------|
|----------|----------|----------|----------|---------------|
|----------|-0--------|-0--------|-0--------|-0----0-0-x-0--|


  W          H    E E E E   H    E E E E   W
|----------|--------------|--------------|------|
|----------|--------------|--------------|------|
|----------|--------------|--------------|------|
|-0--------|-0----0-0-x-0-|-0----0-0-x-0-|-0----|


  Q  Q  Q  E E   Q  Q  Q  Q    Q  Q  Q  E E   E E E E E E E E
|--------------|-------------|--------------|-----------------|
|--------------|-------------|--------------|-----------------|
|-------6--3-7-|----------5--|-------6--3-7-|-----------------|
|-0--8---------|-x--8--3-----|-0--8---------|---0-1-0-3-0-1-0-|


  Q  Q  Q  E E   Q  Q  Q  Q    Q  Q  Q  E E   Q  E E +H
|--------------|-------------|--------------|---------------||
|--------------|-------------|--------------|---------------||
|-------6--3-7-|----------5--|-------6--3-7-|----5-3-(3)----||
|-0--8---------|-x--8--3-----|-0--8---------|---------------||


   Verse
                                       1.
    $
    E E E E E E E E   E E E E E E E E   S S S S S S S S S S S S S S S S
||------------------|-----------------|---------------------------------|
||o-----------------|-----------------|---------------------------------|
||o-5-5-5-5-7-7-7-7-|-5-5-5-5-7-7-7-7-|-5-5-5-5-5-5-5-5-7-7-7-7-7-7-7-7-|
||------------------|-----------------|---------------------------------|


  S S S S S S S S S S S S S S S S
|----------------------------------||
|---------------------------------o||
|-5-5-5-5-5-5-5-5-7-7-7-7-7-7-7-7-o||
|----------------------------------||


 2.
                                                           To Coda
  S S S S S S S S S S S S S S S S   S S S S S S S S S S S S S S S S
|---------------------------------|---------------------------------|
|---------------------------------|---------------------------------|
|-3-3-3-3-3-3-3-3-5-5-5-5-5-5-5-5-|-3-3-3-3-3-3-3-3-5-5-5-5-5-5-5-5-|
|---------------------------------|---------------------------------|


  H    H      H    H        S S S S S S S S S S S S S S S S
|-----------|-----------||------------------------------------||
|-----------|-----------||o----------------------------------o||
|-5----7----|-5----7----||o-5-5-5-5-5-5-5-5-7-7-7-7-7-7-7-7--o||
|-----------|-----------||------------------------------------||


  H    H      H    H        S S S S S S S S S S S S S S S S
|-----------|-----------||------------------------------------||
|-----------|-----------||o----------------------------------o||
|-5----7----|-5----7----||o-3-3-3-3-3-3-3-3-5-5-5-5-5-5-5-5--o||
|-----------|-----------||------------------------------------||


  Q  Q  Q  E E   Q  Q  Q  Q    Q  Q  Q  E E   E E E E E E E E
|--------------|-------------|--------------|-----------------|
|--------------|-------------|--------------|-----------------|
|-------6--3-7-|----------5--|-------6--3-7-|-----------------|
|-0--8---------|-x--8--3-----|-0--8---------|---0-1-0-3-0-1-0-|


                                             D.S. al Coda
  Q  Q  Q  E E   Q  Q  Q  Q    Q  Q  Q  E E   Q  E E +H
|--------------|-------------|--------------|---------------||
|--------------|-------------|--------------|---------------||
|-------6--3-7-|----------5--|-------6--3-7-|----5-3-(3)----||
|-0--8---------|-x--8--3-----|-0--8---------|---------------||


 Pre-Chorus
  &
  E E H.        E E H.        E E H.        E E Q  E E Q
|-------------|-------------|-------------|---------------|
|-------------|-------------|-------------|---------------|
|-------------|-1-1---------|-------------|-3-3-----------|
|-3-3---------|-------------|-3-3---------|--------1-1----|


  E E H.        E E H.        E E H.        E E H.
|-------------|-------------|-------------|-----------|
|-------------|-------------|-------------|-----------|
|-------------|-------------|-5-5---------|-8-8-------|
|-3-3---------|-6-6---------|-------------|-----------|


   Chorus
    E E E E E E E E   E E E E E E E E   E E E E E E E E   E E E E E E E E
||------------------|-----------------|-----------------|------------------|
||o-----------------|-----------------|-----------------|------------------|
||o-----------------|-1-1-1-1-1-1-1-1-|-----------------|-3-3-3-3----------|
||--3-3-3-3-3-3-3-3-|-----------------|-3-3-3-3-3-3-3-3-|---------1-1-1-1--|


  1.
  E E E E E E E E   E E E E E E E E   E E E E E E E E   E E E E E E E E
|-----------------|-----------------|-----------------|------------------||
|-----------------|-----------------|-----------------|-----------------o||
|-----------------|-1-1-1-1-1-1-1-1-|-5-5-5-5-5-5-5-5-|-----------------o||
|-3-3-3-3-3-3-3-3-|-----------------|-----------------|-1-1-1-1-1-1-1-1--||


  2.
  E E E E E E E E   E E E E E E E E   E E E E E E E E   E E E E E E E E
|-----------------|-----------------|-----------------|-----------------||
|-----------------|-----------------|-----------------|-----------------||
|-----------------|-1-1-1-1-1-1-1-1-|-5-5-5-5-5-5-5-5-|-8-8-8-8-8-8-8-8-||
|-3-3-3-3-3-3-3-3-|-----------------|-----------------|-----------------||


   Interlude
    W          W          W          W
||-----------|----------|----------|-------||
||o----------|----------|----------|------o||
||o----------|----------|----------|------o||
||-----------|----------|----------|-------||


  Q  Q  Q  E E   Q  Q  Q  Q    Q  Q  Q  E E   E E E E E E E E
|--------------|-------------|--------------|-----------------|
|--------------|-------------|--------------|-----------------|
|----6-----6---|----6--------|----6-----6---|-----------------|
|-3-----2----3-|-x-----6--1--|-3-----2----3-|---3-4-3-6-3-4-3-|


  Q  Q  Q  E E   Q  Q  Q  Q    Q  Q  Q  E E   Q  E E +H
|--------------|-------------|--------------|---------------||
|--------------|-------------|--------------|---------------||
|----6-----6---|----6--------|----6-----6---|------6-(6)----||
|-3-----2----3-|-x-----6--1--|-3-----2----3-|----1----------||


   Verse
                                       1.
    E E E E E E E E   E E E E E E E E   S S S S S S S S S S S S S S S S
||------------------|-----------------|---------------------------------|
||o-----------------|-----------------|---------------------------------|
||o-5-5-5-5-7-7-7-7-|-5-5-5-5-7-7-7-7-|-5-5-5-5-5-5-5-5-7-7-7-7-7-7-7-7-|
||------------------|-----------------|---------------------------------|


  S S S S S S S S S S S S S S S S
|----------------------------------||
|---------------------------------o||
|-5-5-5-5-5-5-5-5-7-7-7-7-7-7-7-7-o||
|----------------------------------||


 2.
  S S S S S S S S S S S S S S S S   S S S S S S S S S S S S S S S S
|---------------------------------|---------------------------------|
|---------------------------------|---------------------------------|
|-3-3-3-3-3-3-3-3-5-5-5-5-5-5-5-5-|-3-3-3-3-3-3-3-3-5-5-5-5-5-5-5-5-|
|---------------------------------|---------------------------------|


                           1.
    H    H      H    H      S S S S S S S S S S S S S S S S
||------------|-----------|---------------------------------|
||o-----------|-----------|---------------------------------|
||o-5----7----|-5----7----|-5-5-5-5-5-5-5-5-7-7-7-7-7-7-7-7-|
||------------|-----------|---------------------------------|


  S S S S S S S S S S S S S S S S
|----------------------------------||
|---------------------------------o||
|-5-5-5-5-5-5-5-5-7-7-7-7-7-7-7-7-o||
|----------------------------------||


 2.
  S S S S S S S S S S S S S S S S   E E Q  E E Q
|---------------------------------|-----------------||
|---------------------------------|-----------------||
|-3-3-3-3-3-3-3-3-5-5-5-5-5-5-5-5-|-3-3----5-5------||
|---------------------------------|-----------------||


   Breakdown
    W          W          W          W
||-----------|----------|----------|-------||
||o----------|----------|----------|------o||
||o----------|----------|----------|------o||
||-----------|----------|----------|-------||


    H    H      H    H      H    H      H    H
||------------|-----------|-----------|------------||
||o-----------|-----------|-----------|-----------o||
||o-----------|-2---------|-----------|-2---------o||
||--4----0----|------2----|-4----0----|------2-----||


  Q  Q  Q  Q    Q  Q  Q  Q    W
|-------------|-------------|------|
|-------------|-------------|------|
|-------------|-------------|------|
|-4--3--2--1--|-4--3--2--1--|------|


    W          W          W          Q  H.
||-----------|----------|----------|-----------||
||o----------|----------|----------|----------o||
||o----------|----------|----------|----------o||
||--4--------|-5--------|-4--------|-7---------||


 Guitar Solo
  W          E E H.        E E H.
|----------|-------------|-----------|
|----------|-------------|-----------|
|----------|-------------|-----------|
|----------|-3-----------|-3---------|


  E E E E E E E E   E E E E E E E E   E E E E E E E E   E E E E E E E E
|-----------------|-----------------|-----------------|-----------------|
|-----------------|-----------------|-----------------|-----------------|
|-----6-6---------|-----6-6---------|-----6-6---------|-----6-6---------|
|-3-3-----6-6-1-1-|-3-3-----6-6-1-1-|-3-3-----6-6-1-1-|-3-3-----6-6-1-1-|


  Q  Q  Q  Q    Q  Q  Q  Q    W          Q  Q  Q  Q
|-------------|-------------|----------|-------------||
|-------------|-------------|----------|-------------||
|-------------|-------------|----------|----6--------||
|-3--2--1--0--|-3--2--1--0--|----------|-3-----6--1--||


 Pre-Chorus
  E E H.        E E H.        E E H.        E E Q  E E Q
|-------------|-------------|-------------|---------------|
|-------------|-------------|-------------|---------------|
|-------------|-1-1---------|-------------|-3-3-----------|
|-3-3---------|-------------|-3-3---------|--------1-1----|


  E E H.        E E H.        E E H.        E E H.
|-------------|-------------|-------------|-----------||
|-------------|-------------|-------------|-----------||
|-------------|-------------|-5-5---------|-8-8-------||
|-3-3---------|-6-6---------|-------------|-----------||


   Chorus
    E E E E E E E E   E E E E E E E E   E E E E E E E E   E E E E E E E E
||------------------|-----------------|-----------------|------------------|
||o-----------------|-----------------|-----------------|------------------|
||o-----------------|-1-1-1-1-1-1-1-1-|-----------------|-3-3-3-3----------|
||--3-3-3-3-3-3-3-3-|-----------------|-3-3-3-3-3-3-3-3-|---------1-1-1-1--|


  1.
  E E E E E E E E   E E E E E E E E   E E E E E E E E   E E E E E E E E
|-----------------|-----------------|-----------------|------------------||
|-----------------|-----------------|-----------------|-----------------o||
|-----------------|-1-1-1-1-1-1-1-1-|-5-5-5-5-5-5-5-5-|-----------------o||
|-3-3-3-3-3-3-3-3-|-----------------|-----------------|-1-1-1-1-1-1-1-1--||


  2.
  E E E E E E E E   E E E E E E E E   E E E E E E E E   W
|-----------------|-----------------|-----------------|------||
|-----------------|-----------------|-----------------|------||
|-----------------|-1-1-1-1-1-1-1-1-|-5-5-5-5-5-5-5-5-|-8----||
|-3-3-3-3-3-3-3-3-|-----------------|-----------------|------||


 Outro
  Q  Q  Q  Q    Q  Q  Q  Q    W          E E E E E E Q
|-------------|-------------|----------|----------------|
|-------------|-------------|----------|----------------|
|-------------|-------------|----------|----------------|
|-3--2--1--0--|-3--2--1--0--|----------|-3-3---3-3---4--|


  Q  H.        Q  H.
|------------|----------*|
|------------|----------*|
|------------|----------*|
|-3----------|-3--------*|


Children of Bodom albums
2005 Trashed, Lost & Strung Out (EP)
2003 Hate Crew Deathroll
2001 Tokyo Warhearts (Live)
2001 Follow the Reaper
1999 Hatebreeder
1998 Something Wild
Follow the Reaper tabs
01Follow the Reaper tabbass tab
02Bodom After Midnight tabbass tab
03Children of Decadence tabbass tab
04Everytime I Die tabbass tab
05Mask of Sanity tabbass tab
06Taste of My Scythe tabbass tab
07Hate Me! tabbass tab
08Northern Comfort tabbass tab
09Kissing the Shadows tabbass tab
10Hellion tabbass tab

 

1