Search tabs:
Browse artists: 0-9 | A | B | C | D | E | F | G | H | I | J | K | L | M | N | O | P | Q | R | S | T | U | V | W | X | Y | Z
/ Children of Bodom / Hatebreeder (1999) / Bed of Razors bass tab

Tune down

F||-------|-------||--------------------|---------------------|
C||*------|------*||--------------------|---------------------|
G||*------|------*||-----------1--------|-----------3----5----|
D||-------|-------||--0-----------------|--0------------------|



------------------------------|--------------------------|------|------|------|
------------------------------|--------------------------|------|------|------|
----------------1----1--1--1--|----------------3----5----|------|------|------|
--0----0--0--0----------------|--0----0--0--0------------|------|------|------|


                                                    2x
------||---------------------|----------------------||---------------------|
------||*--2--------4--------|--2-------------0----*||*--2--------4--------|
------||*--------------------|-----------3---------*||*--------------------|
------||---------------------|----------------------||---------------------|



------|------|--------------------------------------|
------|------|--------------------------------------|
------|------|--------------------------------------|
------|------|--0--0--0--0--0--0--0--0--0--0--0--0--|



--------------------------------------|--------------------------------------|
--------------------------------------|--------------------------------------|
-----------------------5--5--5--5--5--|--------------------------------------|
--0--0--0--0--0--0--0-----------------|--0--0--0--0--0--0--0--0--0--0--0--0--|



----------------------------------|----------------------------------|
----------------------------------|----------------------------------|
--------------------5--7--8--7----|--3----3--3--3--3--3--3--3--3--3--|
--0--0--0--0--0--0----------------|----------------------------------|



--------------------------------------|--------------------------------------|
--------------------------------------|--------------------------------------|
--------------------2--2--2--2--2--2--|-----------8-----7-----------5-----7--|
--2--2--2--2--2--2--------------------|--0--0--0-----0-----0--0--0-----0-----|



--------------------------------------|--------------------------------------|
--------------------------------------|--------------------------------------|
-----------8-----7-----5--5--5--5--5--|-----------8-----7-----------5-----7--|
--0--0--0-----0-----0-----------------|--0--0--0-----0-----0--0--0-----0-----|


                                                                             2x
-------------------------------||---------------------|----------------------||
-------------------------------||*--2--------4--------|--2-------------0----*||
-----------8-----7--7---5-7----||*--------------------|-----------3---------*||
--0--0--0-----0----------------||---------------------|----------------------||



--------------------|-------------------------------|
--------------------|-------------------------------|
--7--------9--------|--7----7----7----7----5--------|
--------------------|-------------------------------|



------------------------------------|------------------------------------|
------------------------------------|------------------------------------|
--7----7--7--7--7-------------------|--7----7--7--7--7-------------------|
-------------------7----7--7--7--7--|-------------------7----7--7--7--7--|



-----------------------------------------|-----------------------------------|
-----------------------------------------|-----------------------------------|
-----------------------------------------|-----------------------------------|
--8----8--8--8--8--10----10--10--10--10--|--3----3--3--3--3--2----2--2--2----|



------------------------------------|------------------------------------|
------------------------------------|------------------------------------|
--7----7--7--7--7-------------------|--7----7--7--7--7-------------------|
-------------------7----7--7--7--7--|-------------------7----7--7--7--7--|



-----------------------------------------|-----------------------------------|
-----------------------------------------|-----------------------------------|
-----------------------------------------|-----------------------------------|
--8----8--8--8--8--10----10--10--10--10--|--3----3--3--3--3--2----2--2--2----|



------------------------------------|------------------------------------|
------------------------------------|------------------------------------|
--7----7--7--7--7-------------------|--7----7--7--7--7-------------------|
-------------------7----7--7--7--7--|-------------------7----7--7--7--7--|



------------------------------------|-----------------------------------|
------------------------------------|-----------------------------------|
------------------------------------|--5----5--5--5--5------------------|
--3----3--3--3--3--5----5--5--5--5--|-------------------5----5--5--5----|



------------------------------------|------------------------------------|
------------------------------------|------------------------------------|
--7----7--7--7--7-------------------|--7----7--7--7--7-------------------|
-------------------7----7--7--7--7--|-------------------7----7--7--7--7--|



------------------------------------|-----------------------------------|
------------------------------------|-----------------------------------|
------------------------------------|--5----5--5--5--5------------------|
--3----3--3--3--3--5----5--5--5--5--|-------------------5----5--5--5----|



------------------------------------|------------------------------------|
------------------------------------|------------------------------------|
--7----7--7--7--7-------------------|--7----7--7--7--7-------------------|
-------------------7----7--7--7--7--|-------------------7----7--7--7--7--|



------------------------------------|-----------------------------------|
------------------------------------|-----------------------------------|
------------------------------------|--5----5--5--5--5------------------|
--3----3--3--3--3--5----5--5--5--5--|-------------------5----5--5--5----|



------------------------------------|------------------------------------|
------------------------------------|------------------------------------|
--7----7--7--7--7-------------------|--7----7--7--7--7-------------------|
-------------------7----7--7--7--7--|-------------------7----7--7--7--7--|



----------------------|--------------------------|
----------------------|--------------------------|
-------5----7----5----|--3----5------------------|
--3-------------------|------------0--0--0--0----|



------------------------------------|------------------------------------|
------------------------------------|------------------------------------|
--7----7--7--7--7-------------------|--7----7--7--7--7-------------------|
-------------------7----7--7--7--7--|-------------------7----7--7--7--7--|



----------------------|--------------------------|------|
----------------------|--------------------------|------|
-------5----7----5----|--3----5------------------|------|
--3-------------------|------------0--0--0--0----|------|



---------------------------|------|--------------------------|
---------------------------|------|--------------------------|
------------5--5--5--5--5--|------|--------------5--5--5--5--|
---------------------------|------|--------------------------|



--------------------------------------|--------------------------------------|
--------------------------------------|--------------------------------------|
--------------------------------------|-----------------------5--5--5--5--5--|
--0--0--0--0--0--0--0--0--0--0--0--0--|--0--0--0--0--0--0--0-----------------|



--------------------------------------|----------------------------------|
--------------------------------------|----------------------------------|
--------------------------------------|--------------------5--7--8--7----|
--0--0--0--0--0--0--0--0--0--0--0--0--|--0--0--0--0--0--0----------------|



----------------------------------|--------------------------------------|
----------------------------------|--------------------------------------|
--3----3--3--3--3--3--3--3--3--3--|--------------------2--2--2--2--2--2--|
----------------------------------|--2--2--2--2--2--2--------------------|



--------------------------------------|--------------------------------------|
--------------------------------------|--------------------------------------|
-----------8-----7-----------5-----7--|-----------8-----7-----5--5--5--5--5--|
--0--0--0-----0-----0--0--0-----0-----|--0--0--0-----0-----0-----------------|



|---------------------------------------|
|*-----------5-----4--2--2--2--5--2--4--|
|*--3--3--3-----3-----------------------|
|---------------------------------------|



---------------------------------------||--------------------------------------|
-----------2-----0-----------5-----4--*||-----------5-----4--2--2--2--5--2--4--|
--------------------2--2--2-----2-----*||--3--3--3-----3-----------------------|
--3--3--3-----3------------------------||--------------------------------------|



--------------------------------------|--------------------------------------|
-----------2-----0-----------5-----4--|-----------5-----4--2--2--2--5--2--4--|
--------------------2--2--2-----2-----|--3--3--3-----3-----------------------|
--3--3--3-----3-----------------------|--------------------------------------|



--------------------------------------|--------------------|
-----------2-----0-----------5-----4--|-----------2--------|
--------------------2--2--2-----2-----|--3-----------------|
--3--3--3-----3-----------------------|--------------------|



--------------------|--------------------|--------------------|
--------------------|-----------2--------|--------------------|
-----------2--------|--3-----------------|-----------2--------|
--3-----------------|--------------------|--3-----------------|



--------------------|--------------------|--------------------|
-----------2--------|--------------------|-----------2--------|
--3-----------------|-----------2--------|--3-----------------|
--------------------|--3-----------------|--------------------|



-------------------|-------------------|--------------------|
-------------------|-------------------|--------------------|
-------------------|--7----------------|-----------5--------|
--3----------------|-------------------|--3-----------------|



-------------------|--------------------|-------------------|
-------------------|--------------------|-------------------|
--7----------------|-----------5--------|--7----------------|
-------------------|--3-----------------|-------------------|



--------------------|-------------------|-------------------||
--------------------|-------------------|-------------------||
-----------5--------|--7----------------|-------------------||
--3-----------------|-------------------|--3----------------||


Children of Bodom albums
2005 Trashed, Lost & Strung Out (EP)
2003 Hate Crew Deathroll
2001 Tokyo Warhearts (Live)
2001 Follow the Reaper
1999 Hatebreeder
1998 Something Wild
Hatebreeder tabs
01Warheart tabbass tab
02Silent Night, Bodom Night tabbass tab
03Hatebreeder tabbass tab
04Bed of Razors tabbass tab
05Towards Dead End tabbass tab
06Black Widow tabbass tab
07Wrath Within tabbass tab
08Children of Bodom tabbass tab
09Downfall tabbass tab

 

1