Search tabs:
Browse artists: 0-9 | A | B | C | D | E | F | G | H | I | J | K | L | M | N | O | P | Q | R | S | T | U | V | W | X | Y | Z
/ CKY / CKY, Vol. 2 (2001) / Fat Fuck bass tab

CKY - Fat Fuck
Submitted By: Turdman77
EMail: Turdman77@hotmail.com


Riff one

G----------------------------------------------------------------------------------
D----0---------0--------------------------0---------0-------------------222-----
A-------2----------4--2--0--2---222--------2--------4--2---0---2-------------
E-----------------------------------------------------------------------------------

Riff two

G----------------------------------------------------------------------------------
D------------------------------------------2h4p2-0------------------------------
A----2-2-2---4-0-0-0-0--2-2-2---4-0------------------------------------------
E-----------------------------------------------------------------------------------

CKY roCK~


CKY albums
2005 An Answer Can Be Found
2002 Infiltrate Destroy Rebuild
2001 CKY, Vol. 2
2001 CKY, Vol. 1
CKY, Vol. 2 tabs
01Santa's Coming tabbass tab
05Shippensburg tabbass tab
09Genesis 12a tabbass tab
10Fat Fuck tabbass tab
11Testing tabbass tab
14Eye Of The Tiger tabbass tab
15Step To Cky tabbass tab
19Arto/Rowley Part tabbass tab
28Foreign Objects tabbass tab

 

1